Forum Aski - Türkiye'nin En Eğlenceli Forumu
 

Go Back   Forum Aski - Türkiye'nin En Eğlenceli Forumu > Müzik Dünyası > Nota - Akor - Tab
facebook bağlan


Bazı Önemli Akorlar

Nota - Akor - Tab kategorisinde açılmış olan Bazı Önemli Akorlar konusu , Bazi Önemli Akorlar - Akor - Gitar Akor - Akor Hakkında - Akorda Bazi Önemli Olanlar a- Minörler: b-Majorler: Am: La Minör A: La Major e|-------|------|-------|-------|------|------| e|-------|------|-------|-------|------|------| B|--(1)--|------|-------|-------|------|------| B|-------|-(3)--|-------|-------|------|------| G|-------|-(3)--|-------|-------|------|------| ...


Yeni Konu aç  Cevapla
 
LinkBack Seçenekler Arama Stil
Alt 17.06.2013, 18:57   #1 (permalink)
Root Administrator

Kullanıcıların profil bilgileri misafirlere kapatılmıştır.
Standart Bazı Önemli Akorlar



Bazi Önemli Akorlar - Akor - Gitar Akor -
Akor Hakkında - Akorda Bazi Önemli Olanlar




a- Minörler: b-Majorler:
Am: La Minör A: La
Major
e|-------|------|-------|-------|------|------|
e|-------|------|-------|-------|------|------|
B|--(1)--|------|-------|-------|------|------|
B|-------|-(3)--|-------|-------|------|------|
G|-------|-(3)--|-------|-------|------|------|
G|-------|-(2)--|-------|-------|------|------|
D|-------|-(2)--|-------|-------|------|------|
D|-------|-(1)--|-------|-------|------|------|
A|-------|------|-------|-------|------|------|
A|-------|------|-------|-------|------|------|
E|X------|------|-------|-------|------|------|
E|X------|------|-------|-------|------|------|
Perde1 Perde2 Perde3 Perde4
Perde5 Perde6 Perde1 Perde2 Perde3 Perde4 Perde5 Perde6

Bm: Si Minör B:
Si Major
e|-------|-(1)--|-------|-------|------|------|
e|-------|-(1)--|-------|-------|------|------|
B|-------|-(1)--|--(2)--|-------|------|------|
B|-------|------|-------|--(4)--|------|------|
G|-------|-(1)--|-------|--(4)--|------|------|
G|-------|------|-------|--(3)--|------|------|
D|-------|-(1)--|-------|--(3)--|------|------|
D|-------|------|-------|--(2)--|------|------|

A|-------|-(1)--|-------|-------|------|------|
A|-------|------|-------|-------|------|------|
E|-------|-(1)--|-------|-------|------|------|
E|X------|------|-------|-------|------|------|
Perde1 Perde2 Perde3 Perde4
Perde5 Perde6 Perde1 Perde2 Perde3 Perde4 Perde5 Perde6

Cm: Do Minör C:
Do Major
e|-------|------|--(1)--|-------|------|------|
e|-------|------|-------|-------|------|------|
B|-------|------|--(1)--|--(2)--|------|------|
B|--(1)--|------|-------|-------|------|------|
g|-------|------|--(1)--|-------|-(3)--|------|
G|-------|------|-------|-------|------|------|
D|-------|------|--(1)--|-------|-(4)--|------|
D|-------|-(2)--|-------|-------|------|------|
A|-------|------|--(1)--|-------|------|------|
A|-------|------|--(3)--|-------|------|------|
E|-------|------|--(1)--|-------|------|------|
E|X------|------|-------|-------|------|------|
Perde1 Perde2 Perde3 Perde4
Perde5 Perde6 Perde1 Perde2 Perde3 Perde4 Perde5 Perde6

Dm: Re Minör D:
Re Major
e|--(1)--|------|-------|-------|------|------|
e|-------|-(3)--|-------|-------|------|------|
B|-------|------|--(3)--|-------|------|------|
B|-------|------|--(2)--|-------|------|------|
G|-------|-(2)--|-------|-------|------|------|
G|-------|-(1)--|-------|-------|------|------|
D|-------|------|-------|-------|------|------|
D|-------|------|-------|-------|------|------|
A|X------|------|-------|-------|------|------|
A|X------|------|-------|-------|------|------|
E|X------|------|-------|-------|------|------|
E|X------|------|-------|-------|------|------|
Perde1 Perde2 Perde3 Perde4
Perde5 Perde6 Perde1 Perde2 Perde3 Perde4 Perde5 Perde6

Em: Mi Minör E:
Mi Major
e|-------|------|-------|-------|------|------|
e|-------|------|-------|-------|------|------|
B|-------|------|-------|-------|------|------|
B|-------|------|-------|-------|------|------|
G|-------|------|-------|-------|------|------|
G|-(1)---|------|-------|-------|------|------|
D|-------|-(3)--|-------|-------|------|------|
D|-------|-(3)--|-------|-------|------|------|
A|-------|-(2)--|-------|-------|------|------|
A|-------|-(2)--|-------|-------|------|------|
E|-------|------|-------|-------|------|------|
E|-------|------|-------|-------|------|------|
Perde1 Perde2 Perde3 Perde4
Perde5 Perde6 Perde1 Perde2 Perde3 Perde4 Perde5 Perde6

Fm: Fa Minör F:
Fa Major
e|--(1)--|------|-------|-------|------|------|
e|--(1)--|------|-------|-------|------|------|
B|--(1)--|------|-------|-------|------|------|
B|--(1)--|------|-------|-------|------|------|
G|--(1)--|------|-------|-------|------|------|
G|--(1)--|-(2)--|-------|-------|------|------|
D|--(1)--|------|--(4)--|-------|------|------|
D|--(1)--|------|--(4)--|-------|------|------|
A|--(1)--|------|--(3)--|-------|------|------|
A|--(1)--|------|--(3)--|-------|------|------|
E|--(1)--|------|-------|-------|------|------|
E|--(1)--|------|-------|-------|------|------|
Perde1 Perde2 Perde3 Perde4
Perde5 Perde6 Perde1 Perde2 Perde3 Perde4 Perde5 Perde6

Gm: Sol Minör
(*)G: Sol Major
e|-------|------|--(1)--|-------|------|------|
e|-------|------|--(1)--|-------|------|------|

B|-------|------|--(1)--|-------|------|------|
B|-------|------|--(1)--|-------|------|------|
G|-------|------|--(1)--|-------|------|------|
G|-------|------|--(1)--|--(2)--|------|------|
D|-------|------|--(1)--|-------|-(4)--|------|
D|-------|------|--(1)--|-------|-(4)--|------|
A|-------|------|--(1)--|-------|-(3)--|------|
A|-------|------|--(1)--|-------|-(3)--|------|
E|-------|------|--(1)--|-------|------|------|
E|-------|------|--(1)--|-------|------|------|
Perde1 Perde2 Perde3 Perde4
Perde5 Perde6 Perde1 Perde2 Perde3 Perde4 Perde5 Perde6

(*)G: Sol Major
(Baresiz)
e|-------|------|--(2)--|-------|------|------|
B|-------|-(1)--|-------|-------|------|------|
G|-------|------|-------|-------|------|------|
D|-------|------|-------|-------|------|------|
A|-------|------|-------|-------|------|------|
E|-------|------|--(4)--|-------|------|------|
Perde1
Perde2 Perde3 Perde4 Perde5 Perde6

__________________
[Link'i Görebilmeniz İçin Kayıt Olunuz.! Kayıt OL][Link'i Görebilmeniz İçin Kayıt Olunuz.! Kayıt OL][Link'i Görebilmeniz İçin Kayıt Olunuz.! Kayıt OL][Link'i Görebilmeniz İçin Kayıt Olunuz.! Kayıt OL][Link'i Görebilmeniz İçin Kayıt Olunuz.! Kayıt OL][Link'i Görebilmeniz İçin Kayıt Olunuz.! Kayıt OL][Link'i Görebilmeniz İçin Kayıt Olunuz.! Kayıt OL][Link'i Görebilmeniz İçin Kayıt Olunuz.! Kayıt OL][Link'i Görebilmeniz İçin Kayıt Olunuz.! Kayıt OL][Link'i Görebilmeniz İçin Kayıt Olunuz.! Kayıt OL][Link'i Görebilmeniz İçin Kayıt Olunuz.! Kayıt OL][Link'i Görebilmeniz İçin Kayıt Olunuz.! Kayıt OL]
Jaqen isimli Üye şuanda  online konumundadır Alıntı ile Cevapla
Cevapla

Yukarı'daki Konuyu Aşağıdaki Sosyal Ağlarda Paylaşabilirsiniz.


(Tümünü Görüntüle Konuyu Görüntüleyen Üyeler: 1
Laura
Seçenekler Arama
Stil

Yetkileriniz
Konu Açma Yetkiniz Yok
Cevap Yazma Yetkiniz Yok
Eklenti Yükleme Yetkiniz Yok
Mesajınızı Değiştirme Yetkiniz Yok

BB code is Açık
Smileler Açık
[IMG] Kodları Açık
HTML-Kodu Kapalı
Trackbacks are Açık
Pingbacks are Açık
Refbacks are Açık


Forum hakkında Kullanılan sistem hakkında
Forumaski paylaşım sitesidir.Bu nedenle yazılı, görsel ve diğer materyaller sitemize kayıtlı üyelerimiz tarafından kontrol edilmeksizin eklenmektedir.Bu nedenden ötürü doğabilecek yasal sorumluluklar yazan kullanıcılara aittir.Sitemiz hak sahiplerinin şikayetleri doğrultusunda yazılı, görsel ve diğer materyalleri 48 saat içerisinde sitemizden kaldırmaktadır. Bildirimlerinizi bu linkten bize yapabilirsiniz.

Telif Hakları vBulletin® Copyright ©2000 - 2016, ve Jelsoft Enterprises Ltd.'e Aittir.
SEO by vBSEO 3.6.0 PL2 ©2011, Crawlability, Inc.

Saat: 02:46