Forum Aski - Türkiye'nin En Eğlenceli Forumu
 

Go Back   Forum Aski - Türkiye'nin En Eğlenceli Forumu > Müzik Dünyası > Nota - Akor - Tab
facebook bağlan


Çilekeş Akorları

Nota - Akor - Tab kategorisinde açılmış olan Çilekeş Akorları konusu , Ardıma Hiç Bakmadan D#m Bb D#m Bb Denedim olmadı..Hevesim kalmadı.. D#m Bb G#m Bb Aradığım bir çare,bi ümit kalmadı D#m Bb D#m Bb Kendimi yormadım,kimseye soramadım D#m Bb G#m Bb ...


Yeni Konu aç  Cevapla
 
LinkBack Seçenekler Arama Stil
Alt 17.06.2013, 19:04   #1 (permalink)
Root Administrator

Kullanıcıların profil bilgileri misafirlere kapatılmıştır.
Standart Çilekeş Akorları



Ardıma Hiç
Bakmadan


D#m Bb D#m Bb
Denedim olmadı..Hevesim
kalmadı..
D#m Bb G#m Bb
Aradığım bir çare,bi ümit kalmadı
D#m Bb D#m
Bb
Kendimi yormadım,kimseye soramadım
D#m Bb G#m Bb
Dermanım kalmadı
ah..Sevenim hiç olmadı..

D#m Bb D#m Bb
Düşlerim başka şeyler,Ağlarım
hiç bıkmadan
D#m Bb G#m Bb-(B-Bb-B-Bb-B-Bb-G#m-Bb)
Giderim çok
uzaklara,ardıma hiç bakmadan... Ohooooo...

D#m Bb D#m Bb
Kendimi
yormadım,kimseye soramadım
D#m Bb G#m Bb
Dermanım kalmadı,Sevenim hiç
olmadı

D#m Bb D#m Bb
Düşlerim başka şeyler,Ağlarım hiç bıkmadan
D#m
Bb G#m Bb-(B-Bb-B-Bb-B-Bb-G#m-Bb)
Giderim çok uzaklara,ardıma hiç bakmadan...
Ohooooo...


Y.O.K


Dm Gm C
Dm
İlk değil, son olmaz
Gm C Dm
Hayat yalnız yaşanmaz
Gm C Dm Gm
C Dm
Gidenin ardından bakıp ağlanmaz
Gm C Dm Gm C Dm
Kimsesiz,
çaresiz. Bir şey yok, hiç kimse yok
Gm C Dm
Ağlasam, yalvarsam, bağırsam

C
Bir şey farketmez


Dm Gm C Bb
Elimden hiçbir şey gelmez,
hiçbir çarem yok &
Dm Gm C Bb &2x Nak.
Karanlık bu sokaklarda
sesimi duyan yok &



Dm Gm C Dm
İlk değil, son olmaz
Gm
C Dm
Hayat yalnız yaşanmaz
Gm C Dm Gm C Dm
Gidenin ardından bakıp
ağlanmaz
Gm C Dm Gm C Dm
Kimsesiz, çaresiz. Bir şey yok, hiç kimse yok

Gm C Dm
Ağlasam, yalvarsam, bağırsam
C
Bir şey
farketmez


Dm Gm C Bb
Elimden hiçbir şey gelmez, hiçbir çarem yok
&
Dm Gm C Bb &2x Nak.
Karanlık bu sokaklarda sesimi duyan yok
&

A Dm
Hiç kimse yok >>>>>>>>>>
Nakarata dön



Körpe


Intro (
4x Bb-B )

E- 6-6-6-6-6-6-6-6-6-6-6-7-7-7-7-7-7-7 /
6-6-6-6-6-6-6-6-6-6-6-10-10-10-10-10-10 /
B-
----------------------------------- / ---------------------------------------
/
G- ----------------------------------- /
--------------------------------------- /
D-
----------------------------------- / ---------------------------------------
/
A- ----------------------------------- /
--------------------------------------- /
E-
----------------------------------- / --------------------------------------- /


E- 6-6-6-6-6-6-6-6-6-6-6-7-7-7-7-7-7-7 / 6-6-6-6-6-6-6-6-6-6-6-6-6 /

B- ----------------------------------- / ------------------------- /
G-
----------------------------------- / ------------------------- /
D-
----------------------------------- / ------------------------- /
A-
----------------------------------- / ------------------------- /
E-
----------------------------------- / ------------------------- /


Bb
B Bb G#m Bb
Duyduğunu bilmeden bağırdım arkandan
Bb B Bb G#m
Gördüğünü
bilmeden ağladım



B Bb
Hani bir gün özlersen
G#m
Geri
dönmek istersen gel
B
Hiç düşünme bir an bile
Bb
Bir bakışın yeter

D#m Bb
Hani bir gün özlersen
G#m
Geri dönmek istersen gel

B
Hiç düşünme bir an bile
Bb
Bir gülüşün yeter





Bb B Bb G#m Bb
Akıbetimi bilmeden yollara düştüm
Bb B
Bb G#m
Umudumu yitirmeden geri döndüm




B Bb
Hani bir
gün özlersen
G#m
Geri dönmek istersen gel
B
Hiç düşünme bir an
bile
Bb
Bir bakışın yeter
D#m Bb
Hani bir gün özlersen
G#m

Geri dönmek istersen gel
B
Hiç düşünme bir an bile
Bb
Bir
gülüşün yeter


burda solo giriyo tam olarak çıkartamadım ama mi
telinde(6-7-9),
si telinde (6-7-9), sol telinde (7-8) perdelerinde gezerek
doğaçlama yapabilirsiniz...


................solo bitince
yavaşlıyo..............


A- / ---------- bu yapılırken aşağıdaki
sözler söyleniyo...
E- / ----------
G- / ----------
D- /
----------
A- / ---6---5--
E- / -6---7----

Hani bir gün dönersen


Gelip de beni göremezsen

Hiç üzülme bir an bile

Bir
gözyaşın yeter...




Senin Gibi

C#m
F#m
Küçük bir an için, ait olmak için
A C#m B
Eski aşklar gibi
kapında
C# F#m
Yalnız bir gün için, nefes almak için
A C#m
B
Kanarken avuçlarım karşında

F#m C#m B
Üzerimde sevdiğin mavi
elbisem
F#m C#m B
Sensiz geçirdiğim günlerden

F#m C#m B
Senin
gibi beni kimse sevmedi
F#m C#m B
Bekledim gittiğin günden beri
F#m C#m
B
Senin gibi beni kimse sevmedi
F#m C#m B
Dönmedin gittiğin yerden geri



Siyah


telleri
yarım ton aşağıya alıyoruz ilk önce. en üst tel hariç, onu c# e
çekecez

teller şöyle olmalı yukardan aşağıya : c# g# c# f# a#
d#




GİRİŞ


f#-------------------------------------------
a#--8-8-10-5-6-5---8-8-10-5-6s8--8-8-10-5-6-5
d#-------------------------------------------



girişten
sözlere geçerken bir de şu
ekleniyor



f#------------------------------
a#--8-8-10-5-6-----8-8-10-5-6---
d#--------------8--------------8


sözlerde
girişte yaptığımıza devam ediyoruz


NAKARAT


simsiyah yine
her taraf


c#-0--0--0--0--0--0--0--0--0
g#-0--0--0--0--0--0--0--0--0
c#--------------------------

yanlış
düzen yanlış
zaman

c#-3--3--3--3--3--5--5--5--5--5
g#-3--3--3--3--3--5--5--5--5--5
c#-----------------------------


nakarattan
çıkarken de şunu
yapıyoruz

c#-7-0-0-3-0-0-3s5-0-0-2s3-0-0-0-3-3-2-2-0-0-5
g#-7-0-0-3-0-0-3s5-0-0-2s3-0-0-0-3-3-2-2-0-0-5
c#--------------------------------------------


ardından
yine sözler bölümü geliyor

nakarata geçerken şöyle yapabilirsiniz palm
muting yaparak armoniyi
sağlamak için


hiç saklım kalmasa
bile

c#-7-7-7-7-7-8-8-8-8-8-7-7-7-7-7-8-8-8-8-8
g#-7-7-7-7-7-8-8-8-8-8-7-7-7-7-7-8-8-8-8-8
c#----------------------------------------

birden
bireeeeeeeeeee


c#-----8-8-10-10-11-11-12
g#-----8-8-10-10-11-11-12
c#-----------------------


tekrar
nakarat

vibrato tarzı bir efektle şimdi sözlerde şunu
yapıyoruz


f#--9--7--9--7--10--9--7--5--12--10--9
a#--8--6--8--6--9---8--6--4-----------
d#------------------------------------




Yetmiyor

A
C#m
Ne olur girme artık gecelerime
A C#m
Yalnızlığım bile yine hep
seninle
A C#m
Ellerin ellerimi tutmuyor
A C#m
Gözlerin beni sana
hapsediyor

A C#m B
Bilmek yetmiyor, görmek yetmiyor
A C#m
B
Varlığın beni kahrediyor
A C#m B
Farketmiyor, sensiz olmuyor
A C#m
B
Yokluğun bile beni terkediyor

A C#m
Sen vardın, sadece sen
varsın
A C#m
Yine de ben hiç yoktum aklında
A C#m
Sen gördün, bir
tek sen gördün
A C#m
Yine de ben hiç yoktum aslında

A C#m
B
Bilmek yetmiyor, görmek yetmiyor
A C#m B
Varlığın beni
kahrediyor
A C#m B
Farketmiyor, artık olmuyor
A C#m B
Yokluğun bile
beni terkediyor


A C#m
Sevmek yetmiyor, ölmek yetmiyor
A
C#m
Yokluğun bile beni terkediyor...

Benzer Konular
__________________
[Link'i Görebilmeniz İçin Kayıt Olunuz.! Kayıt OL][Link'i Görebilmeniz İçin Kayıt Olunuz.! Kayıt OL][Link'i Görebilmeniz İçin Kayıt Olunuz.! Kayıt OL][Link'i Görebilmeniz İçin Kayıt Olunuz.! Kayıt OL][Link'i Görebilmeniz İçin Kayıt Olunuz.! Kayıt OL][Link'i Görebilmeniz İçin Kayıt Olunuz.! Kayıt OL][Link'i Görebilmeniz İçin Kayıt Olunuz.! Kayıt OL][Link'i Görebilmeniz İçin Kayıt Olunuz.! Kayıt OL][Link'i Görebilmeniz İçin Kayıt Olunuz.! Kayıt OL][Link'i Görebilmeniz İçin Kayıt Olunuz.! Kayıt OL][Link'i Görebilmeniz İçin Kayıt Olunuz.! Kayıt OL][Link'i Görebilmeniz İçin Kayıt Olunuz.! Kayıt OL]
Jaqen isimli Üye şuanda  online konumundadır Alıntı ile Cevapla
Cevapla

Yukarı'daki Konuyu Aşağıdaki Sosyal Ağlarda Paylaşabilirsiniz.


(Tümünü Görüntüle Konuyu Görüntüleyen Üyeler: 1
Laura
Seçenekler Arama
Stil

Yetkileriniz
Konu Açma Yetkiniz Yok
Cevap Yazma Yetkiniz Yok
Eklenti Yükleme Yetkiniz Yok
Mesajınızı Değiştirme Yetkiniz Yok

BB code is Açık
Smileler Açık
[IMG] Kodları Açık
HTML-Kodu Kapalı
Trackbacks are Açık
Pingbacks are Açık
Refbacks are Açık


Forum hakkında Kullanılan sistem hakkında
Forumaski paylaşım sitesidir.Bu nedenle yazılı, görsel ve diğer materyaller sitemize kayıtlı üyelerimiz tarafından kontrol edilmeksizin eklenmektedir.Bu nedenden ötürü doğabilecek yasal sorumluluklar yazan kullanıcılara aittir.Sitemiz hak sahiplerinin şikayetleri doğrultusunda yazılı, görsel ve diğer materyalleri 48 saat içerisinde sitemizden kaldırmaktadır. Bildirimlerinizi bu linkten bize yapabilirsiniz.

Telif Hakları vBulletin® Copyright ©2000 - 2016, ve Jelsoft Enterprises Ltd.'e Aittir.
SEO by vBSEO 3.6.0 PL2 ©2011, Crawlability, Inc.

Saat: 18:07