Forum Aski - Türkiye'nin En Eğlenceli Forumu
 

Go Back   Forum Aski - Türkiye'nin En Eğlenceli Forumu > Müzik Dünyası > Nota - Akor - Tab
facebook bağlan


Pentagram -1000 In The Eastland - Anatolia - Sonsuz - Gitar Tab

Nota - Akor - Tab kategorisinde açılmış olan Pentagram -1000 In The Eastland - Anatolia - Sonsuz - Gitar Tab konusu , Pentagram -1000 In The Eastland - Anatolia - Sonsuz - Gitar Tab 1000 In The Eastland e---------------------------------------------------------------------- B-----10--10-9-10----12-10-9--------------------9--9---9------9-10---12 G-9--------------------------10-9-7-9-----9----------10----10---------- D---------------------------------------------------------------------- A---------------------------------------------------------------------- E---------------------------------------------------------------------- e----------------------------------------------------------- B-10-9-10--12-10-9----------------9-9----9--10-9------------ G------------------10-9-7-9----9------10---------10-9-7-9-7- D----------------------------------------------------------- A----------------------------------------------------------- E----------------------------------------------------------- e-------------------------------- B----9-9-10-9----------9--------- ...


Yeni Konu aç  Cevapla
 
LinkBack Seçenekler Arama Stil
Alt 02.07.2013, 11:51   #1 (permalink)
Root Administrator

Kullanıcıların profil bilgileri misafirlere kapatılmıştır.
Standart Pentagram -1000 In The Eastland - Anatolia - Sonsuz - Gitar Tab



Pentagram -1000 In The Eastland - Anatolia - Sonsuz - Gitar Tab

1000 In The Eastland

e----------------------------------------------------------------------
B-----10--10-9-10----12-10-9--------------------9--9---9------9-10---12
G-9--------------------------10-9-7-9-----9----------10----10----------
D----------------------------------------------------------------------
A----------------------------------------------------------------------
E----------------------------------------------------------------------

e-----------------------------------------------------------
B-10-9-10--12-10-9----------------9-9----9--10-9------------
G------------------10-9-7-9----9------10---------10-9-7-9-7-
D-----------------------------------------------------------
A-----------------------------------------------------------
E-----------------------------------------------------------

e--------------------------------
B----9-9-10-9----------9---------
G-9-----------10-9--10--10-9-7-9-
D--------------------------------
A--------------------------------
E--------------------------------

e----------------------------------------------------------------------
B-----10--10-9-10----12-10-9--------------------9--9---9------9-10---12
G-9--------------------------10-9-7-9-----9----------10----10----------
D----------------------------------------------------------------------
A----------------------------------------------------------------------
E----------------------------------------------------------------------

e-----------------------------------------------------------
B-10-9-10--12-10-9----------------9-9----9--10-9------------
G------------------10-9-7-9----9------10---------10-9-7-9-7-
D-----------------------------------------------------------
A-----------------------------------------------------------
E-----------------------------------------------------------

e--------------------------------------------------------------
B----9-9-10-9----------9---------------------------------------
G-9-----------10-9--10--10-9-7-----9-9------------9-9----------
D----------------------------------7-7-5--7-5-7---7-7-5--7-5-10
A--------------------------------------------------------------

e-------------------------------------------------------------------
B--------------------------------------------------------------------
G---------------------------------7--9-------7--12-----7--9-----7--10
D-9-9------------9-9-----------9-9-------9-9-------9-9------9-9------
A-7-7-5--7-5-7---7-7--7-5-8----7-7-------7-7-------7-7------7-7------
E--------------------------------------------------------------------

e---------------------------------------}
B---------------------------------------}
G---------------------------------------} 3
D----------------------2----------------} kere
A-2--------------------0-----0-0---0-2--}
E-0----0.0.0.0.0.0.0.0.---4------4-----1}

e-----------------------------------------3---------------------
B-----------------------------------------3---------------------
G---------------------------------------------------------------
D----------------------2---------------------9-9-------9-9------
A-2--------------------0----0-0---0-2--------7-7--5-7--7-7--5-10
E-0----0.0.0.0.0.0.0.0.---4-----4-----3-1-----------------------

e--------------------------------------------------------
B--------------------------------------------------------
G--------------------------------------------------------
D-2--------------9-9-------9-9---------9-9-------9-9-----
A-0--------------7-7--5-7--7-7--5-10---7-7--5-7--7-7-5-8-
E-----1-1-1----------------------------------------------

e---------------------------------------------------------
B---------------------------------------------------------
G---------------------------------------------------------
D----9-7-9----7----7-9---------------9-7-9----7-9----9-7--
A-7---------10--10-----10-8-7-----7--------10-----10------
E-----------------------------10--------------------------

e------------------------------------------------------------
B------------------------------------------------------------
G------------------------------------------------------------
D----9-7-9----7----7-9---------------------------------------
A-7---------10--10-----10-8-7-------7--10-9-10--9-7--9------7
E-----------------------------10-----------------------9-10--

Anatolia

e----------------------------------------------------------------------------
B ---------------------------------------------------------------------------
G ---------------------------------------------------------------------------
D ---------------------------------------------------------------------------
A ---2-1-2----------2-1---1-2-4------2-1-2-----------------------------------
E -0-------3-2----0-----3----------0-------3-2----0-3-2-0-2-3-0--------------

e ---------------------------------------------------------------------------
B ---------------------------------------------------------------------------
G ---------------------------------------------------------------------------
D ---------------------------------------------------------------------------
A ---2-1-2----------2-1---1-2-4------2-1-2-----------------------------------
E -0-------3-2----0-----3----------0-------3-2----0-3-2-0-2-3-0--------------

e ---------------------------------------------------------------------------
B ---------------------------------------------------------------------------
G ---------------------------------------------------------------------------
D ---------------------------------------------------------------------------
A ---2-1-2----------2-1---1-2-4------2-1-2--------------1-2-4-2^4^2-1-2-4----
E -0-------3-2----0-----3----------0-------3-2----0-2-3----------------------

e ---------------------------------------------------------------------------
B ---------------------------------------------------------------------------
G ---------------------------------------------------------------------------
D ---------------------------------------------------------------------------
A ---2-1-2----------2-1---1-2-4------2-1-2--------------1-2-4-2^4^2-1--------
E -0-------3-2----0-----3----------0-------3-2----0-2-3---------------3-2----

e -------------------------------------------------
B -------------------------------------------------
G -------------------------------------------------
D -----------------------------------------1-2-----
A -----------------1-2-----------------2-3---------
E -0-2-3-2-5-0-2-3---------0-2-3-2-5-0-------------

e -------------------------------------------------
B -------------------------------------------------
G -------------------------------------------------
D -----------------------------------------1-2-----
A -----------------1-2-----------------2-3---------
E -0-2-3-2-5-0-2-3---------0-2-3-2-5-0-------------

e ---------------------------------------------------------------------------
B ---------------------------------------------------------------------------
G ---------------------------------------------------------------------------
D --2--2-1-2--------2--2-1-2--------2--2-1-2--------2--2-1-2-----------------
A --0--------3------0---------------0--------3------0------------------------
E ---------------------------------------------------------------------------

e ---------------------------------------------------------------------------
B ---------------------------------------------------------------------------
G ---------------------------------------------------------------------------
D --2--2-1-2--------2--2-1-2--------2--2-1-2--------2--5-4-5-----------------
A --0--------3------0---------------0--------3------0------------------------
E ---------------------------------------------------------------------------

Sonsuz

INTRO:
Em D Em
E----------------------------------------------------------
B ---------------------------------------------------------
G ---9'-------7'-----------------7-------7-----------------
D -9----9'--7----7'----4-5-7---7---7---4---4----5-4-2-0-2--
A ---------------------------------------------------------
E ---------------------------------------------------------

E---------------|
B---------------|
G---------------|
D-----2------2--| x2
A-4-5----4-5----|
E---------------|

C D Em
E ----------------------------------------|
B ----------------------------------------|
G ----------------------------------------|
D -2-2----5-5--2---0----4-4-0--7-7--------| x2
A -----3---------3-----------------7-5-7--|
E ----------------------------------------|

Em
Sanırsın dağlarda yol olmaz
Em
Usanırsın kalbinde güç kalmaz
Am Em
Uzanırsın oooof yarın olmaz
Em
Zor günlerin ardında huzur olmaz ki
Em
Her zaman umutlar yön bulmaz
Am Em
Yarın olsa da beklenen gün olmaz

G )
Sözlerim gerçektir )
D Em )
Yüreğim kardeştir her zaman )
G ) I.Kısım
Umudum sonsuzdur )
D Em )
Uğraşım bitmez hiçbir zaman )

C )
Geliyor geçiyor hayat )
D Em )
Dönüyor durmuyor dünya )
C ) II.Kısım
Geliyor geçiyor zaman )
D Em )
Dönüyor durmuyor dünya )

Em
Sanırsın yalnızlık tek dostun
Em
Aldanırsın kaçmakla bitmiyor
Am Em
Hiçbir zaman oooof yalnızlığın

I.Kısım Tekrar
II.Kısım Tekrar

Benzer Konular
    __________________
    [Link'i Görebilmeniz İçin Kayıt Olunuz.! Kayıt OL][Link'i Görebilmeniz İçin Kayıt Olunuz.! Kayıt OL][Link'i Görebilmeniz İçin Kayıt Olunuz.! Kayıt OL][Link'i Görebilmeniz İçin Kayıt Olunuz.! Kayıt OL][Link'i Görebilmeniz İçin Kayıt Olunuz.! Kayıt OL][Link'i Görebilmeniz İçin Kayıt Olunuz.! Kayıt OL][Link'i Görebilmeniz İçin Kayıt Olunuz.! Kayıt OL][Link'i Görebilmeniz İçin Kayıt Olunuz.! Kayıt OL][Link'i Görebilmeniz İçin Kayıt Olunuz.! Kayıt OL][Link'i Görebilmeniz İçin Kayıt Olunuz.! Kayıt OL][Link'i Görebilmeniz İçin Kayıt Olunuz.! Kayıt OL][Link'i Görebilmeniz İçin Kayıt Olunuz.! Kayıt OL]

    Konu Laura tarafından (30.09.2013 Saat 13:05 ) değiştirilmiştir.
    Jaqen isimli Üye şuanda  online konumundadır Alıntı ile Cevapla
    Cevapla

    Yukarı'daki Konuyu Aşağıdaki Sosyal Ağlarda Paylaşabilirsiniz.


    (Tümünü Görüntüle Konuyu Görüntüleyen Üyeler: 1
    Laura
    Seçenekler Arama
    Stil

    Yetkileriniz
    Konu Açma Yetkiniz Yok
    Cevap Yazma Yetkiniz Yok
    Eklenti Yükleme Yetkiniz Yok
    Mesajınızı Değiştirme Yetkiniz Yok

    BB code is Açık
    Smileler Açık
    [IMG] Kodları Açık
    HTML-Kodu Kapalı
    Trackbacks are Açık
    Pingbacks are Açık
    Refbacks are Açık


    Forum hakkında Kullanılan sistem hakkında
    Forumaski paylaşım sitesidir.Bu nedenle yazılı, görsel ve diğer materyaller sitemize kayıtlı üyelerimiz tarafından kontrol edilmeksizin eklenmektedir.Bu nedenden ötürü doğabilecek yasal sorumluluklar yazan kullanıcılara aittir.Sitemiz hak sahiplerinin şikayetleri doğrultusunda yazılı, görsel ve diğer materyalleri 48 saat içerisinde sitemizden kaldırmaktadır. Bildirimlerinizi bu linkten bize yapabilirsiniz.

    Telif Hakları vBulletin® Copyright ©2000 - 2016, ve Jelsoft Enterprises Ltd.'e Aittir.
    SEO by vBSEO 3.6.0 PL2 ©2011, Crawlability, Inc.

    Saat: 18:36