Forum Aski - Türkiye'nin En Eğlenceli Forumu
 

Go Back   Forum Aski - Türkiye'nin En Eğlenceli Forumu > Müzik Dünyası > Nota - Akor - Tab
facebook bağlan


3 Doors Down Gitar Tabları

Nota - Akor - Tab kategorisinde açılmış olan 3 Doors Down Gitar Tabları konusu , 3 Doors Down Gitar Tabları Gitar Tab >> 3 Doors Down -Kryptonite Gitar Tabları Intro#1 e|------------------------------------------------------------------------------| B|--------------3-----------------------------------------------------------0---| G|*---------4--------4---------0--------------------0-----------------2--------*| D|*-----4-----------------4-------------------0-----------------2--------------*| A|---2-----------------------------------2----------------0---------------------| E|----------------------------------3-------------------------------------------| Intro#2 e|--------------------------------------------------------------0---------------| B|--------------3-----------------------------------------------------2---------| G|----------4--------4---------0--------------------0-----------------------2---| D|------4-----------------4-------------------0---------------------------------| A|---2-----------------------------------2----------------0---------------------| E|----------------------------------3-------------------------------------------| Middle#1 Guitar ...


Yeni Konu aç  Cevapla
 
LinkBack Seçenekler Arama Stil
Alt 02.07.2013, 11:55   #1 (permalink)
Root Administrator

Kullanıcıların profil bilgileri misafirlere kapatılmıştır.
Standart 3 Doors Down Gitar Tabları



3 Doors Down Gitar Tabları

Gitar Tab >> 3 Doors Down -Kryptonite Gitar Tabları
Intro#1
e|------------------------------------------------------------------------------|
B|--------------3-----------------------------------------------------------0---|
G|*---------4--------4---------0--------------------0-----------------2--------*|
D|*-----4-----------------4-------------------0-----------------2--------------*|
A|---2-----------------------------------2----------------0---------------------|
E|----------------------------------3-------------------------------------------|

Intro#2
e|--------------------------------------------------------------0---------------|
B|--------------3-----------------------------------------------------2---------|
G|----------4--------4---------0--------------------0-----------------------2---|
D|------4-----------------4-------------------0---------------------------------|
A|---2-----------------------------------2----------------0---------------------|
E|----------------------------------3-------------------------------------------|

Middle#1
Guitar 1 (Clean)
e|---2--2--x--x--2--2--x--x--3--3--x--x--0--0--x--x---|
B|---3--3--x--x--3--3--x--x--3--3--x--x--0--0--x--x---|
G|---4--4--x--x--4--4--x--x--0--0--x--x--2--2--x--x---|
D|---4--4--x--x--4--4--x--x--0--0--x--x--2--2--x--x---|
A|---2--2--x--x--2--2--x--x--2--2--x--x--0--0--x--x---|
E|---2--2--x--x--2--2--x--x--3--3--x--x--0--0--x--x---|

|Guitar 2 (Distorted) - Hold This Chord 2x
e|----------------------------------------------------|
B|----------------------------------------------------|
G|---4------------(4)---------(4)---------(4)---------|
D|---4------------(4)---------(4)---------(4)---------|
A|---2------------(2)---------(2)---------(2)---------|
E|----------------------------------------------------|

Chorus1
Guitar 1 & 2 (Distorted)
e|-------------------------------------------------------------------|
B|-------------------------------------------------------------------|
G|---4-4-4---4-4-4---4-4-4---4-4-4-------------------2-2-2---2-2-2---|
D|---4-4-4---4-4-4---4-4-4---4-4-4---5-5-5---5-5-5---2-2-2---2-2-2---|
A|---2-2-2---2-2-2---2-2-2---2-2-2---5-5-5---5-5-5---0-0-0---0-0-0---|
E|-----------------------------------3-3-3---3-3-3-------------------|

Chorus2
e|-------------------------------------------------------------------|
B|-------------------------------------------------------------------|
G|---4-4-4---4-4-4---4-4-4---4-4-4-----------------------------------|
D|---4-4-4---4-4-4---4-4-4---4-4-4---2-2-2---2-2-2---4-4-4---4-4-4---|
A|---2-2-2---2-2-2---2-2-2---2-2-2---2-2-2---2-2-2---4-4-4---4-4-4---|
E|-----------------------------------0-0-0---0-0-0---2-2-2---2-2-2---|



Middle#2
Repeat 2x
Guitar 1 (Clean - Arpeggate As Follows)
e|------------------------------------------------------------------------------|
B|--------------3-----------------------------------------------------------0---|
G|*---------4--------4---------0--------------------0-----------------2--------*|
D|*-----4-----------------4-------------------0-----------------2--------------*|
A|---2-----------------------------------2----------------0---------------------|
E|----------------------------------3-------------------------------------------|
| |
|Guitar 2 (Distorted) - Hold This Chord 2x |
| B5 |
e|------------------------------------------------------------------------------|
B|------------------------------------------------------------------------------|
G|---4---------(4)---------(4)--------(4)---------(4)---------(4)--------(4)----|
D|---4---------(4)---------(4)--------(4)---------(4)---------(4)--------(4)----|
A|---2---------(2)---------(2)--------(2)---------(2)---------(2)--------(2)----|
E|------------------------------------------------------------------------------|


Solo#1
Guitar 1 (Distorted)
e|---------------------------------------------------|
B|---------------------------------------------------|
G|*--------------------------------------------------|
D|*--------------------------------------------------|
A|---2---4---5---4---5---4---7---5---4---5---4---5---|
E|---------------------------------------------------|
| |
|Guitar 2 (Distorted - Hold Chords in ()`s) |
| |
e|---------------------------------------------------|
B|---------------------------------------------------|
G|*--4---(4)---(4)---(4)-----9--(9)---7---(7)---(7)--|
D|*--4---(4)---(4)---(4)-----9--(9)---7---(7)---(7)--|
A|---2---(2)---(2)---(2)-----7--(7)---5---(5)---(5)--|
E|---------------------------------------------------|

Solo#2
Guitar 1 (Distorted)
e|------------------------------------------------------|
B|------------------------------------------------------|
G|-----------------------------------------------------*|
D|-----------------------------------------------------*|
A|---2---0---2---0---2---0------------------------------|
E|---------------------------0--0--0--000--2--2--2--222-|

Guitar 2 (Distorted - Hold Chords in ()`s) |
e|------------------------------------------------------|
B|------------------------------------------------------|
G|---4---(4)---(4)---(4)-------------------------------*|
D|---4---(4)---(4)---(4)-----2---(2)---4---(4)---(4)---*|
A|---2---(2)---(2)---(2)-----2---(2)---4---(4)---(4)----|
E|---------------------------0---(0)---2---(2)---(2)----|


Middle#3
Repeat 2x
Guitar 1 (Clean - Arpeggate As Follows)
e|---------------2--------------------------3---------------------0-------------|
B|-------------------3-------3-------------------3--------------------2---------|
G|----------4------------4-----------------------------------2------------------|
D|-------4----------------------------------------------2-----------------------|
A|---2---------------------------------2----------------------------------------|
E|--------------------------------3---------------------------------------------|
| |
|Guitar 2 (Distorted) - Hold This Chord 2x |
| B5 |
e|------------------------------------------------------------------------------|
B|------------------------------------------------------------------------------|
G|---4---------(4)---------(4)--------(4)---------(4)---------(4)--------(4)----|
D|---4---------(4)---------(4)--------(4)---------(4)---------(4)--------(4)----|
A|---2---------(2)---------(2)--------(2)---------(2)---------(2)--------(2)----|
E|------------------------------------------------------------------------------|


Outro#1
Guitar 1 (Distorted)
e|---------------------------------------------------|
B|---------------------------------------------------|
G|*--------------------------------------------------|
D|*--------------------------------------------------|
A|---2---4---5---4---5---4---7---5---4---5---4---5---|
E|---------------------------------------------------|

Guitar 2 (Distorted - Hold Chords in ()`s)
e|---------------------------------------------------|
B|---------------------------------------------------|
G|*--4---(4)---(4)---(4)-----9--(9)---7---(7)---(7)--|
D|*--4---(4)---(4)---(4)-----9--(9)---7---(7)---(7)--|
A|---2---(2)---(2)---(2)-----7--(7)---5---(5)---(5)--|
E|---------------------------------------------------|

Outro#2
Guitar 1 (Distorted)
e|------------------------------------------------------|-----------|
B|------------------------------------------------------|-----------|
G|-----------------------------------------------------*|--4---(4)--|
D|-----------------------------------------------------*|--4---(4)--|
A|---2---0---2---0---2---0------------------------------|--2---(2)--|
E|---------------------------0--0--0--000--2--2--2--222-|-----------|

Guitar 2 (Distorted - Hold Chords in ()`s)
e|------------------------------------------------------|-----------|
B|------------------------------------------------------|-----------|
G|---4---(4)---(4)---(4)-------------------------------*|--4---(4)--|
D|---4---(4)---(4)---(4)-----2---(2)---4---(4)---(4)---*|--4---(4)--|
A|---2---(2)---(2)---(2)-----2---(2)---4---(4)---(4)----|--2---(2)--|
E|---------------------------0---(0)---2---(2)---(2)----|-----------|

__________________
[Link'i Görebilmeniz İçin Kayıt Olunuz.! Kayıt OL][Link'i Görebilmeniz İçin Kayıt Olunuz.! Kayıt OL][Link'i Görebilmeniz İçin Kayıt Olunuz.! Kayıt OL][Link'i Görebilmeniz İçin Kayıt Olunuz.! Kayıt OL][Link'i Görebilmeniz İçin Kayıt Olunuz.! Kayıt OL][Link'i Görebilmeniz İçin Kayıt Olunuz.! Kayıt OL][Link'i Görebilmeniz İçin Kayıt Olunuz.! Kayıt OL][Link'i Görebilmeniz İçin Kayıt Olunuz.! Kayıt OL][Link'i Görebilmeniz İçin Kayıt Olunuz.! Kayıt OL][Link'i Görebilmeniz İçin Kayıt Olunuz.! Kayıt OL][Link'i Görebilmeniz İçin Kayıt Olunuz.! Kayıt OL][Link'i Görebilmeniz İçin Kayıt Olunuz.! Kayıt OL]
Jaqen isimli Üye şimdilik offline konumundadır Alıntı ile Cevapla
Cevapla

Yukarı'daki Konuyu Aşağıdaki Sosyal Ağlarda Paylaşabilirsiniz.


(Tümünü Görüntüle Konuyu Görüntüleyen Üyeler: 1
Laura
Seçenekler Arama
Stil

Yetkileriniz
Konu Açma Yetkiniz Yok
Cevap Yazma Yetkiniz Yok
Eklenti Yükleme Yetkiniz Yok
Mesajınızı Değiştirme Yetkiniz Yok

BB code is Açık
Smileler Açık
[IMG] Kodları Açık
HTML-Kodu Kapalı
Trackbacks are Açık
Pingbacks are Açık
Refbacks are Açık


Forum hakkında Kullanılan sistem hakkında
Forumaski paylaşım sitesidir.Bu nedenle yazılı, görsel ve diğer materyaller sitemize kayıtlı üyelerimiz tarafından kontrol edilmeksizin eklenmektedir.Bu nedenden ötürü doğabilecek yasal sorumluluklar yazan kullanıcılara aittir.Sitemiz hak sahiplerinin şikayetleri doğrultusunda yazılı, görsel ve diğer materyalleri 48 saat içerisinde sitemizden kaldırmaktadır. Bildirimlerinizi bu linkten bize yapabilirsiniz.

Telif Hakları vBulletin® Copyright ©2000 - 2016, ve Jelsoft Enterprises Ltd.'e Aittir.
SEO by vBSEO 3.6.0 PL2 ©2011, Crawlability, Inc.

Saat: 08:55