Forum Aski - Türkiye'nin En Eğlenceli Forumu
 

Go Back   Forum Aski - Türkiye'nin En Eğlenceli Forumu > Müzik Dünyası > Nota - Akor - Tab
facebook bağlan


Sertab Erener - Aşk - TAB (versiyon 2)

Nota - Akor - Tab kategorisinde açılmış olan Sertab Erener - Aşk - TAB (versiyon 2) konusu , Sertab Erener - Aşk - TAB (versiyon 2) Parantez içindekileri klasik gitar veya akustik gitara sahipseniz normal şekliyle çalın. Am G F e||------------------------------------------------------------| B||-----------0-------------------0-----------------------0----| G||--------5-----5-------------5-----5-----------2-------------| D||-----2-----------2-----0-------------------3-----3----------| A||--0-------------------------------------3----------3--------| E||--------------------3----------------1----------------------| Am G ...


Yeni Konu aç  Cevapla
 
LinkBack Seçenekler Arama Stil
Alt 02.07.2013, 12:06   #1 (permalink)
Root Administrator

Kullanıcıların profil bilgileri misafirlere kapatılmıştır.
Standart Sertab Erener - Aşk - TAB (versiyon 2)



Sertab Erener - Aşk - TAB (versiyon 2)

Parantez içindekileri klasik gitar veya akustik gitara sahipseniz normal şekliyle çalın.

Am G F
e||------------------------------------------------------------|
B||-----------0-------------------0-----------------------0----|
G||--------5-----5-------------5-----5-----------2-------------|
D||-----2-----------2-----0-------------------3-----3----------|
A||--0-------------------------------------3----------3--------|
E||--------------------3----------------1----------------------|


Am G F |
Aşk Kaç Büyümden |
Am G F |
Aşk Dön Ölümden |===>Bu kısım yukardaki şekilde arpej çalınıyor.
Am G F |
Aşk Bir Sebepten |

Am G F(F Drive la birlikte power akor şeklinde)
Gel Gir Dünyama

Am-G-F / Am-G-E (Hepsi Drive la birlikte power akor şeklinde)
OooOOooOOOooOoo

e||---------------------------------------------------------------------|
B||--/13---12--13--12h-13p-12-------------------------------------------|
G||-----------------------------14--12----------------------------------|
D||-------------------------------------15-14-12-14h-15p-14p---12~--14~-|
A||---------------------------------------------------------------------|
E||---------------------------------------------------------------------|


Am G Am
Aşk Dön Ölümden |
G Am |
Bir Sebepten |
G F E |
Gir Dünyama |====>(Drive Drive la birlikte power akor şeklinde)
Am G Am |
Ask Dön Ölümden |
G Am |
Geç Tenimden |
G F E Am |
Gel Gir Dünyama |



e||---------------------------------------------------------------------|
B||--/13---12--13--12h-13p-12-------------------------------------------|
G||-----------------------------14--12----------------------------------|
D||-------------------------------------15-14-12-14h-15p-14p---12~--14~-|
A||---------------------------------------------------------------------|
E||---------------------------------------------------------------------|


Solo'nun transpoze edilmiş basit hali

e||--/8-7-8-7h-8p-7-5-3-1-0---0h-1p-0h---0-|
B||-------------------------3----------3---|
G||----------------------------------------|
D||----------------------------------------|
A||----------------------------------------|
E||----------------------------------------|

__________________
[Link'i Görebilmeniz İçin Kayıt Olunuz.! Kayıt OL][Link'i Görebilmeniz İçin Kayıt Olunuz.! Kayıt OL][Link'i Görebilmeniz İçin Kayıt Olunuz.! Kayıt OL][Link'i Görebilmeniz İçin Kayıt Olunuz.! Kayıt OL][Link'i Görebilmeniz İçin Kayıt Olunuz.! Kayıt OL][Link'i Görebilmeniz İçin Kayıt Olunuz.! Kayıt OL][Link'i Görebilmeniz İçin Kayıt Olunuz.! Kayıt OL][Link'i Görebilmeniz İçin Kayıt Olunuz.! Kayıt OL][Link'i Görebilmeniz İçin Kayıt Olunuz.! Kayıt OL][Link'i Görebilmeniz İçin Kayıt Olunuz.! Kayıt OL][Link'i Görebilmeniz İçin Kayıt Olunuz.! Kayıt OL][Link'i Görebilmeniz İçin Kayıt Olunuz.! Kayıt OL]
Jaqen isimli Üye şimdilik offline konumundadır Alıntı ile Cevapla
Cevapla

Yukarı'daki Konuyu Aşağıdaki Sosyal Ağlarda Paylaşabilirsiniz.


(Tümünü Görüntüle Konuyu Görüntüleyen Üyeler: 1
Laura
Seçenekler Arama
Stil

Yetkileriniz
Konu Açma Yetkiniz Yok
Cevap Yazma Yetkiniz Yok
Eklenti Yükleme Yetkiniz Yok
Mesajınızı Değiştirme Yetkiniz Yok

BB code is Açık
Smileler Açık
[IMG] Kodları Açık
HTML-Kodu Kapalı
Trackbacks are Açık
Pingbacks are Açık
Refbacks are Açık


Forum hakkında Kullanılan sistem hakkında
Forumaski paylaşım sitesidir.Bu nedenle yazılı, görsel ve diğer materyaller sitemize kayıtlı üyelerimiz tarafından kontrol edilmeksizin eklenmektedir.Bu nedenden ötürü doğabilecek yasal sorumluluklar yazan kullanıcılara aittir.Sitemiz hak sahiplerinin şikayetleri doğrultusunda yazılı, görsel ve diğer materyalleri 48 saat içerisinde sitemizden kaldırmaktadır. Bildirimlerinizi bu linkten bize yapabilirsiniz.

Telif Hakları vBulletin® Copyright ©2000 - 2016, ve Jelsoft Enterprises Ltd.'e Aittir.
SEO by vBSEO 3.6.0 PL2 ©2011, Crawlability, Inc.

Saat: 09:52