Forum Aski - Türkiye'nin En Eğlenceli Forumu
 

Go Back   Forum Aski - Türkiye'nin En Eğlenceli Forumu > Müzik Dünyası > Nota - Akor - Tab
facebook bağlan


Neşe Karaböcek - Artık Sevmeyeceğim Akor Tab

Nota - Akor - Tab kategorisinde açılmış olan Neşe Karaböcek - Artık Sevmeyeceğim Akor Tab konusu , Neşe Karaböcek - Artık Sevmeyeceğim Akor Tab Akor: 1|--------------------------------------- 2|--------------------------------------- 3|--------------------------------------- BUNU YAPTIKTAN SONRA Bİ KERE Em akoru ile 4/4 lük ritim.Yani 4|-2-3-4-3-2-0-2------------------------- Asağı kapa yukarı yukarı kapa yukarı. 5|--------------------------------------- ...


Yeni Konu aç  Cevapla
 
LinkBack Seçenekler Arama Stil
Alt 16.09.2013, 11:15   #1 (permalink)
Süper Üye

Kullanıcıların profil bilgileri misafirlere kapatılmıştır.
Standart Neşe Karaböcek - Artık Sevmeyeceğim Akor Tab



Neşe Karaböcek - Artık Sevmeyeceğim Akor Tab

Akor:
1|---------------------------------------
2|---------------------------------------
3|--------------------------------------- BUNU YAPTIKTAN SONRA Bİ KERE Em
akoru ile 4/4 lük ritim.Yani
4|-2-3-4-3-2-0-2------------------------- Asağı kapa yukarı yukarı kapa
yukarı.
5|---------------------------------------
6|---------------------------------------
1|---------------------------------------
2|---------------------------------------
3|-------2-3-4-2------------------------- BUNDAN SONRADA Am AKORU İLE 4/4 lük
ritim atıyoruz.
4|-2-3-4---------------------------------
5|---------------------------------------
6|---------------------------------------
1|---------------------------------------
2|--0-1-3-1-0----------------------------
3|------------2-------------------------- BUNDAN SONRA İSE G AKORU İLE 2 KERE
AŞAĞI VURUYORUZ.
4|---------------------------------------
5|---------------------------------------
6|---------------------------------------
1|---------------------------------------
2|-------1-0-----------------------------
3|--0-2------2-0------------------------- SONRA BİR KERE DAHA VURCAZ AMA BU
SEFER F AKORU İLE.
4|---------------------------------------
5|---------------------------------------
6|---------------------------------------
1|--------------------------------------- Bu kısım biraz karışık ama belki
anlarsınız.Em akorunu basıyoruz.
2|--------------------------------------- ve 3 kere aşağı yukarı aşağı
yapıyoruz.Sonra Em akorunu bir yan
3|--------------------------------------- perdeye kaydırıp işaret parmağı(1)
3.telin 2.perdesine koyuyoruz.
4|-2-3-4-3-2-0-2------------------------- Yani E akorunu yana kaydırmısız
gibi.Bu seferde yukarı asağı yuka
-
5|--------------------------------------- rı yapıyoruz.En son o akoruda 2
yana kaydırıp aşağı yukarı asağı
6|--------------------------------------- yapıyoruz.Bu işleri tam bilmediğim
için düzgün olmadı ama doğru y
aparsanız olur.
O aşağı yukarı kısmının kolayı elıinizi aşağı yukarı tellerin üzerinde indirin.
1|-0-0-0-0-0-0-0-------------------------
2|---------------1-3---3-1-0-1-0---------
3|---------------------------------------
4|---------------------------------------
5|---------------------------------------
6|---------------------------------------
1|---------------------------------------
2|--0-1-3-1-0----------------------------
3|------------2-------------------------- BUNDAN SONRA İSE G AKORU İLE 2 KERE
AŞAĞI VURUYORUZ.
4|---------------------------------------
5|---------------------------------------
6|---------------------------------------
1|---------------------------------------
2|-------1-0-----------------------------
3|--0-2------2-0------------------------- SONRA BİR KERE DAHA VURCAZ AMA BU
SEFER F AKORU İLE.
4|---------------------------------------
5|---------------------------------------
6|---------------------------------------
1|--------------------------------------- Bu kısım biraz karışık ama belki
anlarsınız.Em akorunu basıyoruz.
2|--------------------------------------- ve 3 kere aşağı yukarı aşağı
yapıyoruz.Sonra Em akorunu bir yan
3|--------------------------------------- perdeye kaydırıp işaret parmağı(1)
3.telin 2.perdesine koyuyoruz.
4|-2-3-4-3-2-0-2------------------------- Yani E akorunu yana kaydırmısız
gibi.Bu seferde yukarı asağı yuka
-
5|--------------------------------------- rı yapıyoruz.En son o akoruda 2
yana kaydırıp aşağı yukarı asağı
6|--------------------------------------- yapıyoruz.Bu işleri tam bilmediğim
için düzgün olmadı ama doğru y
aparsanız olur.
O aşağı yukarı kısmının kolayı elıinizi aşağı yukarı tellerin üzerinde indirin.
Sonra bir kez daha tekrar ama en sonda yukarıdaki kaydırma hareketi 3 kere
yapılacak.
Teşekkür ederim.Lütfen emeğimin karşılığını verin.

Perii isimli Üye şimdilik offline konumundadır Alıntı ile Cevapla
Cevapla

Yukarı'daki Konuyu Aşağıdaki Sosyal Ağlarda Paylaşabilirsiniz.


(Tümünü Görüntüle Konuyu Görüntüleyen Üyeler: 1
Laura
Seçenekler Arama
Stil

Yetkileriniz
Konu Açma Yetkiniz Yok
Cevap Yazma Yetkiniz Yok
Eklenti Yükleme Yetkiniz Yok
Mesajınızı Değiştirme Yetkiniz Yok

BB code is Açık
Smileler Açık
[IMG] Kodları Açık
HTML-Kodu Kapalı
Trackbacks are Açık
Pingbacks are Açık
Refbacks are Açık


Forum hakkında Kullanılan sistem hakkında
Forumaski paylaşım sitesidir.Bu nedenle yazılı, görsel ve diğer materyaller sitemize kayıtlı üyelerimiz tarafından kontrol edilmeksizin eklenmektedir.Bu nedenden ötürü doğabilecek yasal sorumluluklar yazan kullanıcılara aittir.Sitemiz hak sahiplerinin şikayetleri doğrultusunda yazılı, görsel ve diğer materyalleri 48 saat içerisinde sitemizden kaldırmaktadır. Bildirimlerinizi bu linkten bize yapabilirsiniz.

Telif Hakları vBulletin® Copyright ©2000 - 2016, ve Jelsoft Enterprises Ltd.'e Aittir.
SEO by vBSEO 3.6.0 PL2 ©2011, Crawlability, Inc.

Saat: 22:47