Alt 06.11.2013, 17:17 #1 (permalink)
Üyeliği Durduruldu


 
Üye Numarası: 546
Kayıt Tarihi: 21.07.2013
Nereden: ∞
Yaş: 25
İlişki Durumu: Yok
Cinsiyet:
Takımı: Beşiktaş
Burç: İkizler
Mesajlar: 3,269
Konular: 1242
Beğeni Alınan: 731
Beğeni Edilen: 708
Rep Gücü: 0
Beste is on a distinguished road

Standart Athena - BeyoğLu - AKOR

Athena - BeyoğLu - AKOR


Intro:

E |--5--3-2-------------------5--3-2--------------|
B |---------5--4h5--------------------5--4-5-7-4-5|
G |----------------5-4h5--2-----------------------|
D |-----------------------------------------------|
A |-----------------------------------------------|
E |-----------------------------------------------|

E |--5--3-2---------------------------------------|
B |---------5--4h5--------------------------------|
G |----------------5-4h5--2---4-5-4--2-1-2--------|
D |-----------------------------------------------|
A |-----------------------------------------------|
E |-----------------------------------------------|

*Giriş bölümünde "h" olan yerde çarpma ya da diğer tabiriyle
hammer yapılacak. Yapamıyorsanız örneğin 4h5 olan yerde
4-5-4 yapabilirsiniz.


A
Beyoğlu'nda gezersin )
D E A ) x2
Gözlerini süzersin )
D A
Sevdiceğim yavrucağım )
E F E A ) x2
Niçin niçin beni üzersin )

D A E F E A
Ah ah gel gel gel bana gel bana gel) x2

A
Mavi boncuk takarsın )
D E A ) x2
Çok canları yakarsın )
D A
Sevdiceğim yavrucağım )
E F E A ) x2
Niçin beni üzersin )

Beste isimli Üye şimdilik offline konumundadır   Alıntı ile CevaplaAlıntı ile Cevapla
Cevapla

Yukarı'daki Konuyu Aşağıdaki Sosyal Ağlarda Paylaşabilirsiniz.


(Tümünü Görüntüle Konuyu Görüntüleyen Üyeler: 1
Beste
Seçenekler Arama
Stil

Yetkileriniz
Konu Açma Yetkiniz Yok
Cevap Yazma Yetkiniz Yok
Eklenti Yükleme Yetkiniz Yok
Mesajınızı Değiştirme Yetkiniz Yok

BB code is Açık
Smileler Açık
[IMG] Kodları Açık
HTML-Kodu Kapalı
Trackbacks are Açık
Pingbacks are Açık
Refbacks are Açık



Saat: 23:35

Telif Hakları vBulletin® Copyright ©2000 - 2018, ve
Jelsoft Enterprises Ltd.'e Aittir.
 

Hakkında

"Forum sitemizdeki yazılı, görsel ve diğer materyaller sitemize kayıtlı üyelerimiz tarafından kontrol edilmeksizin eklenmektedir.Bu nedenden ötürü doğabilecek yasal sorumluluklar yazan kullanıcılara aittir.Sitemiz hak sahiplerinin şikayetleri doğrultusunda yazılı, görsel ve diğer materyalleri 48 saat içerisinde sitemizden kaldırmaktadır.Bildirimlerinizi bu linkten bize yapabilirsiniz."

 

Copyright © 2016

SEO by vBSEO 3.6.0 PL2 ©2011, Crawlability, Inc.