Forum Aski - Türkiye'nin En Eğlenceli Forumu
 

Go Back   Forum Aski - Türkiye'nin En Eğlenceli Forumu > Müzik Dünyası > Nota - Akor - Tab
facebook bağlan


Beyza Durmaz - Buz Kalpli - AKOR

Nota - Akor - Tab kategorisinde açılmış olan Beyza Durmaz - Buz Kalpli - AKOR konusu , Beyza Durmaz - Buz Kalpli - AKOR E----------------------------------------------------------------------- B-2-3-2-----------2-3-2----2-2-3-------2-3-2------------2-3-2----3-3-4-- G-------4---------------4---------------------4----------------4-------- D---------5-5--4--------------------------------5-5--4------------------ X2 A----------------------------------------------------------------------- E----------------------------------------------------------------------- Bm Em F# E---9-10-9----------------9-10-9----9-10-12-1111-1010---------------9-12-10-9-10 - B----------12-10-----------------12--------------------1212-1111-12------------- - G11--------------12-11-11------------------------------------------------------- - D------------------------------------------------------------------------------- - A------------------------------------------------------------------------------- - E------------------------------------------------------------------------------- - Bm ...


Yeni Konu aç  Cevapla
 
LinkBack Seçenekler Arama Stil
Alt 07.11.2013, 21:58   #1 (permalink)
Üyeliği Durduruldu

Kullanıcıların profil bilgileri misafirlere kapatılmıştır.
Standart Beyza Durmaz - Buz Kalpli - AKOR



Beyza Durmaz - Buz Kalpli - AKOR


E-----------------------------------------------------------------------
B-2-3-2-----------2-3-2----2-2-3-------2-3-2------------2-3-2----3-3-4--
G-------4---------------4---------------------4----------------4--------
D---------5-5--4--------------------------------5-5--4------------------ X2
A-----------------------------------------------------------------------
E-----------------------------------------------------------------------

Bm Em F#

E---9-10-9----------------9-10-9----9-10-12-1111-1010---------------9-12-10-9-10
-
B----------12-10-----------------12--------------------1212-1111-12-------------
-
G11--------------12-11-11-------------------------------------------------------
-
D-------------------------------------------------------------------------------
-
A-------------------------------------------------------------------------------
-
E-------------------------------------------------------------------------------
-

Bm Em F#
E---9-10-9----------------9-10-9----9-10-12-1111-1010---------------9-12-10-9-9-
-
B----------12-10-----------------12--------------------1212-1111-12-------------
-
G11--------------12-11-11-------------------------------------------------------
-
D-------------------------------------------------------------------------------
-
A-------------------------------------------------------------------------------
-
E-------------------------------------------------------------------------------
-


Bm
Sıcacığımdı dondu
Em
Elimi birden tutmaz oldu
A
Nasıl diye çırpınırken
F#
Beni bir anda sevmez oldu

Bm
Sıcacığımdı dondu
Em
Elimi birden tutmaz oldu
A
Biran bile ayrılmazken
F# Bmsus
Şimdi görmek hayal oldu

Em A
O artık buz kalpli
D G
Ne yaptıysam erimedi
Em F# Bm B
O sımsıcak yüreği nerde şimdi
Em A
Çok mu sahici oldukta
D G
Hemen adam yerine koyduk
Em F#
Daha bitek gün yüzü bile görmeden
Bm B
Kapının önüne konduk

Em A
O artık buz kalpli
D G
Ne yaptıysam erimedi
Em F# Bm B
O sımsıcak yüreği nerde şimdi
Em A
Çok mu sevgiye boğdukta
D G
Biranda hayatımızı koyduk
Em F#
Daha bitek gün yüzü bile görmeden
Bm
Bir hiç yerine konduk


TEKRAR BAŞAA...

Beste isimli Üye şimdilik offline konumundadır Alıntı ile Cevapla
Cevapla

Yukarı'daki Konuyu Aşağıdaki Sosyal Ağlarda Paylaşabilirsiniz.


(Tümünü Görüntüle Konuyu Görüntüleyen Üyeler: 0
Henüz kimse konuyu görüntülememiş.
Seçenekler Arama
Stil

Yetkileriniz
Konu Açma Yetkiniz Yok
Cevap Yazma Yetkiniz Yok
Eklenti Yükleme Yetkiniz Yok
Mesajınızı Değiştirme Yetkiniz Yok

BB code is Açık
Smileler Açık
[IMG] Kodları Açık
HTML-Kodu Kapalı
Trackbacks are Açık
Pingbacks are Açık
Refbacks are Açık


Forum hakkında Kullanılan sistem hakkında
Forumaski paylaşım sitesidir.Bu nedenle yazılı, görsel ve diğer materyaller sitemize kayıtlı üyelerimiz tarafından kontrol edilmeksizin eklenmektedir.Bu nedenden ötürü doğabilecek yasal sorumluluklar yazan kullanıcılara aittir.Sitemiz hak sahiplerinin şikayetleri doğrultusunda yazılı, görsel ve diğer materyalleri 48 saat içerisinde sitemizden kaldırmaktadır. Bildirimlerinizi bu linkten bize yapabilirsiniz.

Telif Hakları vBulletin® Copyright ©2000 - 2016, ve Jelsoft Enterprises Ltd.'e Aittir.
SEO by vBSEO 3.6.0 PL2 ©2011, Crawlability, Inc.

Saat: 13:53