Forum Aski - Türkiye'nin En Eğlenceli Forumu
 

Go Back   Forum Aski - Türkiye'nin En Eğlenceli Forumu > Müzik Dünyası > Nota - Akor - Tab
facebook bağlan


Cem karaca - resimdeki göz yaşlari

Nota - Akor - Tab kategorisinde açılmış olan Cem karaca - resimdeki göz yaşlari konusu , Cem karaca - resimdeki göz yaşlari CEM KARACA RESİMDEKİ GÖZ YAŞLARI Birgün belki hayattan E||------|------8--7--8--7--8--7--|--8----------------| B||------|------------------------|-------------------| G||------|------------------------|-------------------| D||------|------------------------|-------------------| A||------|------------------------|-------------------| E||------|------------------------|-------------------| Geçmişteki günlerden ------8--7--8--7--8--9--|--10----------------| ------------------------|--------------------| ------------------------|--------------------| ------------------------|--------------------| ------------------------|--------------------| ------------------------|--------------------| Bir teselli ...


Yeni Konu aç  Cevapla
 
LinkBack Seçenekler Arama Stil
Alt 23.11.2013, 22:15   #1 (permalink)

Kullanıcıların profil bilgileri misafirlere kapatılmıştır.
Standart Cem karaca - resimdeki göz yaşlari



Cem karaca - resimdeki göz yaşlari


CEM KARACA

RESİMDEKİ GÖZ YAŞLARI

Birgün belki hayattan
E||------|------8--7--8--7--8--7--|--8----------------|
B||------|------------------------|-------------------|
G||------|------------------------|-------------------|
D||------|------------------------|-------------------|
A||------|------------------------|-------------------|
E||------|------------------------|-------------------|


Geçmişteki günlerden
------8--7--8--7--8--9--|--10----------------|
------------------------|--------------------|
------------------------|--------------------|
------------------------|--------------------|
------------------------|--------------------|
------------------------|--------------------|


Bir teselli ararsın
------10--8--10--8--10--8--|--7----------------|
---------------------------|-------------------|
---------------------------|-------------------|
---------------------------|-------------------|
---------------------------|-------------------|
---------------------------|-------------------|


Bak o zaman resmimeee...
------7--7--7--7--8--10--|--12~---------------|
-------------------------|--------------------|
-------------------------|--------------------|
-------------------------|--------------------|
-------------------------|--------------------|
-------------------------|--------------------|

Ve İşte arta Kalan
--10------------8--7--|--8--7----5--------7--|
----------------------|----------------------|
----------------------|----------------------|
----------------------|----------------------|
----------------------|----------------------|
----------------------|----------------------|

Bir Küçük resim şimdi Bu Çok üzerdi Beni....

--7--7----7--5----7--8--|--8----8/---9--------|--10------------8--7--|
------------------------|---------------------|----------------------|
------------------------|---------------------|----------------------|
------------------------|---------------------|----------------------|
------------------------|---------------------|----------------------|
------------------------|---------------------|----------------------|


Yasasaydın ve görseydim....
--8--7----7----5------|--7--7--7----7--5----4--|--7----5------------|
----------------------|------------------------|--------------------|
----------------------|------------------------|--------------------|
----------------------|------------------------|--------------------|
----------------------|------------------------|--------------------|
----------------------|------------------------|--------------------|
Tekrar Bastan

__________________



Jade isimli Üye şimdilik offline konumundadır Alıntı ile Cevapla
Cevapla

Yukarı'daki Konuyu Aşağıdaki Sosyal Ağlarda Paylaşabilirsiniz.


(Tümünü Görüntüle Konuyu Görüntüleyen Üyeler: 1
Jade
Seçenekler Arama
Stil

Yetkileriniz
Konu Açma Yetkiniz Yok
Cevap Yazma Yetkiniz Yok
Eklenti Yükleme Yetkiniz Yok
Mesajınızı Değiştirme Yetkiniz Yok

BB code is Açık
Smileler Açık
[IMG] Kodları Açık
HTML-Kodu Kapalı
Trackbacks are Açık
Pingbacks are Açık
Refbacks are Açık


Forum hakkında Kullanılan sistem hakkında
Forumaski paylaşım sitesidir.Bu nedenle yazılı, görsel ve diğer materyaller sitemize kayıtlı üyelerimiz tarafından kontrol edilmeksizin eklenmektedir.Bu nedenden ötürü doğabilecek yasal sorumluluklar yazan kullanıcılara aittir.Sitemiz hak sahiplerinin şikayetleri doğrultusunda yazılı, görsel ve diğer materyalleri 48 saat içerisinde sitemizden kaldırmaktadır. Bildirimlerinizi bu linkten bize yapabilirsiniz.

Telif Hakları vBulletin® Copyright ©2000 - 2016, ve Jelsoft Enterprises Ltd.'e Aittir.
SEO by vBSEO 3.6.0 PL2 ©2011, Crawlability, Inc.

Saat: 22:41