Forum Aski - Türkiye'nin En Eğlenceli Forumu
 

Go Back   Forum Aski - Türkiye'nin En Eğlenceli Forumu > Müzik Dünyası > Nota - Akor - Tab
facebook bağlan


DSS - Sen Yine Seni sev akor, tab

Nota - Akor - Tab kategorisinde açılmış olan DSS - Sen Yine Seni sev akor, tab konusu , DSS - Sen Yine Seni sev akor, tab e---------4-|-2---------4-|---------2-|-------------4-| B-5-4-2-2---|---5p4-2-2---|-4-2-------|-5-4p2--2-2----| G-----------|-------------|-----4-4---|---------------| e---------4-|-2---------4-|---------2-|---------------| B-5-4-2-2---|---5p4-2-2---|-4-2-------|-5-4p2--2------| G-----------|-------------|-----4-4---|---------------| zaman unutup beni...... sessiz oluyor............ yürüdüğüm yol.......... konuşamıyor.............. e---------4-|-2---------4-|---------2-|-------------4-| B-5-4-2-2---|---5p4-2-2---|-4-2-------|-5-4p2--2-2----|(X2) G-----------|-------------|-----4-4---|---------------| e|---------4-|---2-5-4p2-|---4-2-----|----------| B|-4h5-4-5---|-2---------|-4-----5p4-|-2-2-4-5--| G|-----------|-----------|-----------|----------| herşey değişir ...


Yeni Konu aç  Cevapla
 
LinkBack Seçenekler Arama Stil
Alt 23.11.2013, 22:23   #1 (permalink)

Kullanıcıların profil bilgileri misafirlere kapatılmıştır.
Standart DSS - Sen Yine Seni sev akor, tab



DSS - Sen Yine Seni sev akor, tab

e---------4-|-2---------4-|---------2-|-------------4-|
B-5-4-2-2---|---5p4-2-2---|-4-2-------|-5-4p2--2-2----|
G-----------|-------------|-----4-4---|---------------|

e---------4-|-2---------4-|---------2-|---------------|
B-5-4-2-2---|---5p4-2-2---|-4-2-------|-5-4p2--2------|
G-----------|-------------|-----4-4---|---------------|


zaman unutup beni...... sessiz oluyor............
yürüdüğüm yol.......... konuşamıyor..............
e---------4-|-2---------4-|---------2-|-------------4-|
B-5-4-2-2---|---5p4-2-2---|-4-2-------|-5-4p2--2-2----|(X2)
G-----------|-------------|-----4-4---|---------------|

e|---------4-|---2-5-4p2-|---4-2-----|----------|
B|-4h5-4-5---|-2---------|-4-----5p4-|-2-2-4-5--|
G|-----------|-----------|-----------|----------|

herşey değişir ama....
bedenimde yaşamak.....

solo(akordeon):
e----2h4-2~-|-2------|---2----|------2h4-2~-|-4h5-4~-|
B-5---------|---5p4~-|-5---5~-|-4h5~--------|--------|

e-7-5p4-4~-|-4p2--4-7~-|-5p4-2~-|---2-4p2-4~-|--------|
B----------|-----------|--------|-5----------|-5p4-5~-|

e------2h4--2~-|-4h5-4~-|-7-5p4-4~-|-5p4-2~-|---2-4p2-4~-|
B-4-5~---------|--------|----------|--------|-5----------|

e--------|------2h4--2~-|-4h5-4~-|-4h5-4~-|-7~-|-5p4-5~-|
B-5p4-5~-|-4-5~---------|--------|--------|----|--------|

e-4~--2-----------------2-4-2~--4--5--4~--|
B--------5p4-5~--4--5~--------------------|

sevmek yarı ölmektir....
anlatınca eskir.........

sen yine....... çekil yolumdan........
e----4-----2-----2-----4-|---4----2-----4----4--|
B-5-----2-----4-----5----|-5----2----5----5-----|

sen yine...... ...........ben olayım
e---2-----2------4-----4-|---4----2----------4--|
B-2-----4-----5-----5----|-5----2----5-4-4h5----|

e-----------|---2-5-4p2-|---4-2-----|-------4---|
B-5-4-4h5-4-|-2---------|-4-----5p4-|-5-4-5-----|

e-----2-----|------4-|-----2-----|------4-|
B-4-5---4p2-|5-4-5---|-4-5---4p2-|5-4-5---|

keman solo1:
e----2h4-2~--|-4h5-4-----|---2-----|-----2~--|
B-5~---------|-------4~--|-5---5~--|-4-5-----|

e-4h5-4-----|-----2~--|--------|
B-------2~--|-4-5-----|5p4-2~--|

keman solo2:
e-4~~-----------2--4~--|-4~--7~--5p4h5-|
B------2~~--4h5--------|---------------|

e-7~--9~--4~------|------2-|----------|
B-------------5~--|-5--2---|-5p4--2~--|





C Am
zaman unutup beni
Dm Am
bırakır sokaklara
Em G
sessiz oluyor insan
C Am
böyle durumlarda

yürüdüğüm yol değil
gidişin üşütür beni
konuşamıyor insan
böyle havalarda

herşey değişir ama
eskimiyor acılar
yaşayan bilir ancak
nasıl actır akşamlar

C Dm
sen yine seni sev )
Em C )
ben içimde kalayım ) -N-
C Dm )
çekil yolumdan artık )
Em
ben olayım.

bedenimde yaşamak
zor geliyor artık bana
sözlerim kalın sis
ruhuma anlam kat


sevmek yarı ölmektir
böyle demiştin giderken
hergün ölüyor insan
hatırlayınca...

anlatınca eskir
bilirsin yaşananlar
susarım o zaman ben
düşlerim başlar...

__________________



Jade isimli Üye şimdilik offline konumundadır Alıntı ile Cevapla
Cevapla

Yukarı'daki Konuyu Aşağıdaki Sosyal Ağlarda Paylaşabilirsiniz.


(Tümünü Görüntüle Konuyu Görüntüleyen Üyeler: 1
Jade
Seçenekler Arama
Stil

Yetkileriniz
Konu Açma Yetkiniz Yok
Cevap Yazma Yetkiniz Yok
Eklenti Yükleme Yetkiniz Yok
Mesajınızı Değiştirme Yetkiniz Yok

BB code is Açık
Smileler Açık
[IMG] Kodları Açık
HTML-Kodu Kapalı
Trackbacks are Açık
Pingbacks are Açık
Refbacks are Açık


Forum hakkında Kullanılan sistem hakkında
Forumaski paylaşım sitesidir.Bu nedenle yazılı, görsel ve diğer materyaller sitemize kayıtlı üyelerimiz tarafından kontrol edilmeksizin eklenmektedir.Bu nedenden ötürü doğabilecek yasal sorumluluklar yazan kullanıcılara aittir.Sitemiz hak sahiplerinin şikayetleri doğrultusunda yazılı, görsel ve diğer materyalleri 48 saat içerisinde sitemizden kaldırmaktadır. Bildirimlerinizi bu linkten bize yapabilirsiniz.

Telif Hakları vBulletin® Copyright ©2000 - 2016, ve Jelsoft Enterprises Ltd.'e Aittir.
SEO by vBSEO 3.6.0 PL2 ©2011, Crawlability, Inc.

Saat: 06:45