Forum Aski - Türkiye'nin En Eğlenceli Forumu
 

Go Back   Forum Aski - Türkiye'nin En Eğlenceli Forumu > Müzik Dünyası > Nota - Akor - Tab
facebook bağlan


DSS - Gayret Et güzelim akor

Nota - Akor - Tab kategorisinde açılmış olan DSS - Gayret Et güzelim akor konusu , DSS - Gayret Et güzelim akor intro E|--------------------------------|--------------------------------| B|--------------------------------|--------------------------------| G|--------------------------------|--------------------------------| D|-11---11-11--11--9-11-9-11-11^12|-9-11-9-------------------------| A|--------------------------------|--------12-11-12-11-9-7~~9-7^5-7| E|--------------------------------|--------------------------------| E|-------------------|-------------------| B|-------------------|-------------------| G|-------------------|-------------------| D|-------------------|-------------------| A|-7-5-7-5-7-5-7-7^9~|--4-5-7--5---4-----| E|-------------------|-----------7-------| E|--------------------------------|---------------------------------| B|--------------------------------|---------------------------------| G|--------------------------------|---------------------------------| D|-11---11-11--11--9-11-9-11-11^12|-9-11-9--------------------------| A|--------------------------------|--------12-11-12-11-9-7~~-9-7^5-7| E|--------------------------------|---------------------------------| E|--------------------|---------------------| B|--------------------|---------------------| G|--------------------|---------------------| D|--------------------|---------------------| A|-7-5-7-5-7-5-7-7^-9~|-11--9-7--5--7^5-4~~-| ...


Yeni Konu aç  Cevapla
 
LinkBack Seçenekler Arama Stil
Alt 23.11.2013, 22:24   #1 (permalink)

Kullanıcıların profil bilgileri misafirlere kapatılmıştır.
Standart DSS - Gayret Et güzelim akor



DSS - Gayret Et güzelim akor

intro
E|--------------------------------|--------------------------------|
B|--------------------------------|--------------------------------|
G|--------------------------------|--------------------------------|
D|-11---11-11--11--9-11-9-11-11^12|-9-11-9-------------------------|
A|--------------------------------|--------12-11-12-11-9-7~~9-7^5-7|
E|--------------------------------|--------------------------------|


E|-------------------|-------------------|
B|-------------------|-------------------|
G|-------------------|-------------------|
D|-------------------|-------------------|
A|-7-5-7-5-7-5-7-7^9~|--4-5-7--5---4-----|
E|-------------------|-----------7-------|


E|--------------------------------|---------------------------------|
B|--------------------------------|---------------------------------|
G|--------------------------------|---------------------------------|
D|-11---11-11--11--9-11-9-11-11^12|-9-11-9--------------------------|
A|--------------------------------|--------12-11-12-11-9-7~~-9-7^5-7|
E|--------------------------------|---------------------------------|


E|--------------------|---------------------|
B|--------------------|---------------------|
G|--------------------|---------------------|
D|--------------------|---------------------|
A|-7-5-7-5-7-5-7-7^-9~|-11--9-7--5--7^5-4~~-|
E|--------------------|---------------------|



F#m Bm F#m
Gitmem gerek bu şehirden
A C#m Bm F#m
Bir rüya oldun sevdamın gergefinde
F#m Bm F#m
Neden çocuklar beni gösteriyor
A C#m Bm F#m
Yağmur yağsa güneşin yerine

F#m Bm C#m F#m
Ha gayret güzelim gayret
F#m Bm C#m F#m
Biter elbet bu yağmur sabret



F#m E Bm C#m
Sensizlikten olsa gerek çekilmez oldu buralar
F#m E Bm F#m
Hep benle beraber bulamadıklarım
F#m E Bm C#m
Bak cesaretim yok artık geç oldu yorgunum
F#m E Bm F#m
Yine deli oldum sayende saçımda rüzgar

F#m Bm C#m F#m
Ha gayret güzelim gayret
F#m Bm C#m F#m
Biter elbet bu yağmur sabret



solo
E|--------------------------------------------------------------------------
B|--------------------------------------------------------------------------
G|----------------------------11--13--13-13-13^14^13~~~~14-16-14-13-14-13-11
D|-11--11-11---11-12-14-12-14-----------------------------------------------
A|--------------------------------------------------------------------------
E|--------------------------------------------------------------------------

--- ----------------------|
--------------------------|
--------------------------|
--12-14-14^16-14-12-11~~~~|
--------------------------|
--------------------------|



F#m E Bm C#m
Ayrılıktan olsa gerek gecikiyor sabahlar
F#m E Bm F#m
Hep benle beraber unuttuklarım
F#m E Bm C#m
Dönmüyor epeydir başım denizler yalan
F#m E Bm F#m
Sevmek ateş olurmuş derler yanmak yalan
F#m Bm C#m
Şimdi öyle uzak ki geldiğim yollar
E Bm Bm F#m
Yanlış bir öyküdeyim beni yeniden yaz
F#m Bm C#m F#m
Bir çocuktum sevmiştim avuçlarımda aynalar
E Bm Bm F#m
Gayret et güzelim elini uzat

F#m Bm C#m F#m
Ha gayret güzelim gayret
F#m Bm C#m F#m
Biter elbet bu yağmur sabret


E Bm Bm F#m
Gayret et güzelim elini uzat [Tekrar x defa]

__________________



Jade isimli Üye şimdilik offline konumundadır Alıntı ile Cevapla
Cevapla

Yukarı'daki Konuyu Aşağıdaki Sosyal Ağlarda Paylaşabilirsiniz.


(Tümünü Görüntüle Konuyu Görüntüleyen Üyeler: 1
Jade
Seçenekler Arama
Stil

Yetkileriniz
Konu Açma Yetkiniz Yok
Cevap Yazma Yetkiniz Yok
Eklenti Yükleme Yetkiniz Yok
Mesajınızı Değiştirme Yetkiniz Yok

BB code is Açık
Smileler Açık
[IMG] Kodları Açık
HTML-Kodu Kapalı
Trackbacks are Açık
Pingbacks are Açık
Refbacks are Açık


Forum hakkında Kullanılan sistem hakkında
Forumaski paylaşım sitesidir.Bu nedenle yazılı, görsel ve diğer materyaller sitemize kayıtlı üyelerimiz tarafından kontrol edilmeksizin eklenmektedir.Bu nedenden ötürü doğabilecek yasal sorumluluklar yazan kullanıcılara aittir.Sitemiz hak sahiplerinin şikayetleri doğrultusunda yazılı, görsel ve diğer materyalleri 48 saat içerisinde sitemizden kaldırmaktadır. Bildirimlerinizi bu linkten bize yapabilirsiniz.

Telif Hakları vBulletin® Copyright ©2000 - 2016, ve Jelsoft Enterprises Ltd.'e Aittir.
SEO by vBSEO 3.6.0 PL2 ©2011, Crawlability, Inc.

Saat: 14:39