Forum Aski - Türkiye'nin En Eğlenceli Forumu
 

Go Back   Forum Aski - Türkiye'nin En Eğlenceli Forumu > Müzik Dünyası > Nota - Akor - Tab
facebook bağlan


Düş Sokağı Sakinleri - Ayrilik - AKOR (versiyon 1)

Nota - Akor - Tab kategorisinde açılmış olan Düş Sokağı Sakinleri - Ayrilik - AKOR (versiyon 1) konusu , Düş Sokağı Sakinleri - Ayrilik - AKOR (versiyon 1) E-----4---4-------3---3------4h6-4-6------3--3-------6--6---------9---9--E B ---6-6---6-----4-4---4----6------------4-4--4-----6-6--6-------9-9---9-B G --5---5-------5---5------5------------5---5------6---6-------10---10---G D -3----------------------3----------------------------------------------D A ------------3-----------------------3----------------------------------A E -----------------------------------------------6-----------9-----------E E -----6---6-------3--3------4---6-------3---3------4---6h8-------3----3---E B ----6-6---6-----4-4--4----6-6---6-----4-4---4----6-6----------4----4-----B G ---6---6-------5---5-----5---5-------5---5------5---5--------5------5-5--G D ------------------------3----------------------3----------------3-5------D A -------------3---------------------3-----------------------3-------------A ...


Yeni Konu aç  Cevapla
 
LinkBack Seçenekler Arama Stil
Alt 23.11.2013, 22:35   #1 (permalink)

Kullanıcıların profil bilgileri misafirlere kapatılmıştır.
Standart Düş Sokağı Sakinleri - Ayrilik - AKOR (versiyon 1)



Düş Sokağı Sakinleri - Ayrilik - AKOR (versiyon 1)

E-----4---4-------3---3------4h6-4-6------3--3-------6--6---------9---9--E
B ---6-6---6-----4-4---4----6------------4-4--4-----6-6--6-------9-9---9-B
G --5---5-------5---5------5------------5---5------6---6-------10---10---G
D -3----------------------3----------------------------------------------D
A ------------3-----------------------3----------------------------------A
E -----------------------------------------------6-----------9-----------E


E -----6---6-------3--3------4---6-------3---3------4---6h8-------3----3---E
B ----6-6---6-----4-4--4----6-6---6-----4-4---4----6-6----------4----4-----B
G ---6---6-------5---5-----5---5-------5---5------5---5--------5------5-5--G
D ------------------------3----------------------3----------------3-5------D
A -------------3---------------------3-----------------------3-------------A
E -6-----------------------------------------------------------------------E


E -----6---6-------9---9------6------9----3-----3------6-------9----3--3----E
B ----6-6---6-----9-9---9----6------9----4---4--------6-------9----4-4--4---B
G ---6---6------10---10-----6-----10----5-----5--5---6------10----5---5-----G
D ----------------------------------------3-5-------------------------------D
A -------------------------------------3-------------------------3--------3-A
E -6----------9-----------6-----9------------------6------9-----------------E


Am Dm Am
Sana uzaktan bakıyor artık gözlerim
Am
Gönlüm senden geçmez
Dm Am
Bana döndü hep sözlerim
Dm Am C
Unutmak o kadar kolay mı sandın?
Gm Bb Gm Am
Ayrılık bana aşktır artık

Am Dm Am
Dağılmış saclarım gönlünün yatağına uyandırma
Am
Sabah olsun ben giderim
Dm Am
Sen kal rüyamda

__________________



Jade isimli Üye şimdilik offline konumundadır Alıntı ile Cevapla
Cevapla

Yukarı'daki Konuyu Aşağıdaki Sosyal Ağlarda Paylaşabilirsiniz.


(Tümünü Görüntüle Konuyu Görüntüleyen Üyeler: 1
Jade
Seçenekler Arama
Stil

Yetkileriniz
Konu Açma Yetkiniz Yok
Cevap Yazma Yetkiniz Yok
Eklenti Yükleme Yetkiniz Yok
Mesajınızı Değiştirme Yetkiniz Yok

BB code is Açık
Smileler Açık
[IMG] Kodları Açık
HTML-Kodu Kapalı
Trackbacks are Açık
Pingbacks are Açık
Refbacks are Açık


Forum hakkında Kullanılan sistem hakkında
Forumaski paylaşım sitesidir.Bu nedenle yazılı, görsel ve diğer materyaller sitemize kayıtlı üyelerimiz tarafından kontrol edilmeksizin eklenmektedir.Bu nedenden ötürü doğabilecek yasal sorumluluklar yazan kullanıcılara aittir.Sitemiz hak sahiplerinin şikayetleri doğrultusunda yazılı, görsel ve diğer materyalleri 48 saat içerisinde sitemizden kaldırmaktadır. Bildirimlerinizi bu linkten bize yapabilirsiniz.

Telif Hakları vBulletin® Copyright ©2000 - 2016, ve Jelsoft Enterprises Ltd.'e Aittir.
SEO by vBSEO 3.6.0 PL2 ©2011, Crawlability, Inc.

Saat: 00:54