Forum Aski - Türkiye'nin En Eğlenceli Forumu
 

Go Back   Forum Aski - Türkiye'nin En Eğlenceli Forumu > Müzik Dünyası > Nota - Akor - Tab
facebook bağlan


Düş Sokağı Sakinleri - Ölüm - TAB (versiyon 1)

Nota - Akor - Tab kategorisinde açılmış olan Düş Sokağı Sakinleri - Ölüm - TAB (versiyon 1) konusu , Düş Sokağı Sakinleri - Ölüm - TAB (versiyon 1) Giris Bm A e--------------2-------2---------------0------0------ B----------------3-------3---------2-----2--------2---- G--------4---------4------------2-----------2---------- D-----4-------------------------------------------------- A--2-------------------------0-------------------------- E------------------------------------------------------ Em Bm e-------------0--------0------------------2-----------2----- B---------0-----0--------0-------------------3----------3-- G------0----------0-----------------4------------4-------- D---------------------------------4------------------------- A------------------------------2--------------------------- E—0------------------------------------------------------- Bm A e---------2------2------------0-----0------ B-------3---3------3-------2----2-----2---- ...


Yeni Konu aç  Cevapla
 
LinkBack Seçenekler Arama Stil
Alt 23.11.2013, 22:52   #1 (permalink)

Kullanıcıların profil bilgileri misafirlere kapatılmıştır.
Standart Düş Sokağı Sakinleri - Ölüm - TAB (versiyon 1)



Düş Sokağı Sakinleri - Ölüm - TAB (versiyon 1)

Giris
Bm A
e--------------2-------2---------------0------0------
B----------------3-------3---------2-----2--------2----
G--------4---------4------------2-----------2----------
D-----4--------------------------------------------------
A--2-------------------------0--------------------------
E------------------------------------------------------
Em Bm
e-------------0--------0------------------2-----------2-----
B---------0-----0--------0-------------------3----------3--
G------0----------0-----------------4------------4--------
D---------------------------------4-------------------------
A------------------------------2---------------------------
E—0-------------------------------------------------------

Bm A
e---------2------2------------0-----0------
B-------3---3------3-------2----2-----2----
G----4--------4----------2--------2---------
D—-4----------------------------------------
A---------------------0---------------------
E---------------------------------------------
Em Bm
e------------0--------0------------------2-----------2-----
B---------0-----0--------0-------------------3----------3--
G------0----------0-----------------4------------4--------
D---------------------------------4-------------------------
A------------------------------2---------------------------
E—0-------------------------------------------------------

Ud solo 1. (Em Bm G F#m B m)

Bm D A
e-------------2--------2-----------2---------0--
B---------------3--------3------3---------2----
G--------4--------4-----------2--------2-------
D-----4---------------------0--------2---------
A—2-------------------------------------------
E------------------------------------------------
Günler sensiz gecer oldu

A D Bm
e-----------0--------0-----------------2---------------2--
B--------2-----2--------2----------3-----------------------
G-----2----------2--------------2-----------------4--------tekrar
D—2--------------------------0-----------------4------------
A-------------------------------------------2----------------
E------------------------------------------------------------
Yüregim benden gider oldu

Bm A
e----------2-------2---------------0--------0-----
B-------3----3-------3----------2----2--------2---
G----4---------4--------------2---------2----------
D—4-----------------------2-----------------------
A----------------------------------------------------
E----------------------------------------------------
Baharı bek lerken güzelim

A D Bm
e------------0--------0-----------------2-------------2--
B--------2-----2--------2----------3-----------------------
G-----2----------2--------------2-----------------4--------tekrar
D—-2-------------------------0-----------------4------------
A-------------------------------------------2----------------
E------------------------------------------------------------
hep günesi arar oldum



D F#m Bm
e------------2----------------------------------2------
B--------3---------------2------------2h3----3----3--
G-----2--------------2-------------4------4-------------
D—0-------------4---------------4--------------------------
A------------4---------------2--------------------------
E---------------------------------------------------------
Hmmmm hmmmmm hmmmmm

Herseyin bir sonu var ama
Sonu yok ki düstügüm yerin
Sana deil artık güzelim
Ah ölüme kosar icim

Em G Bm
Gel gel artık icimi al ve öldür

Em G Bm
Dön dön artık sesimi al ve öldür

Em Bm G F#m Bm
Seni ben kendime güzelim canımdan gecip sectim
Em Bm G F#m Bm
Sana ben kendimi güzelim ödünc vermedim

Ud solo 2: (Bm-Em-Bm)x2
(Em-Bm-Em-Bm)
(A-Bm-A-Bm)

sonra girisi tekrar ediyo
sonra1.ud solo

__________________



Jade isimli Üye şimdilik offline konumundadır Alıntı ile Cevapla
Cevapla

Yukarı'daki Konuyu Aşağıdaki Sosyal Ağlarda Paylaşabilirsiniz.


(Tümünü Görüntüle Konuyu Görüntüleyen Üyeler: 1
Jade
Seçenekler Arama
Stil

Yetkileriniz
Konu Açma Yetkiniz Yok
Cevap Yazma Yetkiniz Yok
Eklenti Yükleme Yetkiniz Yok
Mesajınızı Değiştirme Yetkiniz Yok

BB code is Açık
Smileler Açık
[IMG] Kodları Açık
HTML-Kodu Kapalı
Trackbacks are Açık
Pingbacks are Açık
Refbacks are Açık


Forum hakkında Kullanılan sistem hakkında
Forumaski paylaşım sitesidir.Bu nedenle yazılı, görsel ve diğer materyaller sitemize kayıtlı üyelerimiz tarafından kontrol edilmeksizin eklenmektedir.Bu nedenden ötürü doğabilecek yasal sorumluluklar yazan kullanıcılara aittir.Sitemiz hak sahiplerinin şikayetleri doğrultusunda yazılı, görsel ve diğer materyalleri 48 saat içerisinde sitemizden kaldırmaktadır. Bildirimlerinizi bu linkten bize yapabilirsiniz.

Telif Hakları vBulletin® Copyright ©2000 - 2016, ve Jelsoft Enterprises Ltd.'e Aittir.
SEO by vBSEO 3.6.0 PL2 ©2011, Crawlability, Inc.

Saat: 07:52