Forum Aski - Türkiye'nin En Eğlenceli Forumu
 

Go Back   Forum Aski - Türkiye'nin En Eğlenceli Forumu > Müzik Dünyası > Nota - Akor - Tab
facebook bağlan


Düş Sokağı Sakinleri - Veremem Sana Acımı - TAB (versiyon 1)

Nota - Akor - Tab kategorisinde açılmış olan Düş Sokağı Sakinleri - Veremem Sana Acımı - TAB (versiyon 1) konusu , Düş Sokağı Sakinleri - Veremem Sana Acımı - TAB (versiyon 1) INTRO (( 1 )) e|------------------------------------------------------ B|------------------------------------------------------ G|------0--------0--------0------0------0--------------- D|---------4--------4--------4------4------4------------ A|------------5---------5-------5------5------5--------- E|------------------------------------------------------ (( 2 )) e------------------------------------------------------ B----------0---------0---------0--------0---------0---- G------0----------0---------0--------0--------0-------- D---2----------2---------2--------2--------2----------- A------------------------------------------------------ E------------------------------------------------------ ...


Yeni Konu aç  Cevapla
 
LinkBack Seçenekler Arama Stil
Alt 23.11.2013, 22:59   #1 (permalink)

Kullanıcıların profil bilgileri misafirlere kapatılmıştır.
Standart Düş Sokağı Sakinleri - Veremem Sana Acımı - TAB (versiyon 1)



Düş Sokağı Sakinleri - Veremem Sana Acımı - TAB (versiyon 1)

INTRO
(( 1 ))
e|------------------------------------------------------
B|------------------------------------------------------
G|------0--------0--------0------0------0---------------
D|---------4--------4--------4------4------4------------
A|------------5---------5-------5------5------5---------
E|------------------------------------------------------

(( 2 ))

e------------------------------------------------------
B----------0---------0---------0--------0---------0----
G------0----------0---------0--------0--------0--------
D---2----------2---------2--------2--------2-----------
A------------------------------------------------------
E------------------------------------------------------

(( 3 ))
e------------------------------------------------------
B------------------------------------------------------
G-------------0----------0-----------------------------
D---------2-----------2--------------------------------
A-----3------------3-----------------------------------
E------------------------------------------------------
Şarkının sözlerine girerken arpej'i tersten alıyoruz...
Ama burda alınmışı var.... ...


1 2
Sözcüklerim bulur aşığın ateşini
1 3 2
Yıkar gider beni ölüm gibi
1 2
Bakışların deler içimdekileri
1 3 2
Kaldırıp atar beni ceset gibi

( Dm C Em )
( Arayıp bulmak neyi değiştirir )
A ( Dm C ) 2
( Karşımda duruyor suretim )
( Em )
( ...gülü bitirir )

( Am Em
( Veremem sana acımı
( C Em
( Kirlenir dünya
( C Am
( Şehrin boş sokakları
( F Em
B ( Islanır göz yaşıyla
( Am Em
( Kovalar arabalar
( C Em
( Arkamdaki aynayı
( C Am
( Kırılınca biter anlarım
( F Em
( Düşümdeki rüya

1 2
Yollarım yorar yarin günahını
1 3 2
Döver olur beni boş kitap gibi
1 2
Hüzün aşkınadır aşık uykularım
1 3 2
Sever olur beni hançer gibi

TEKRAR A ? B

TEKRAR ?B-
Düş Sokağı Sakinleri - Veremem Sana Acımı - TAB (versiyon 1)


alıntı

__________________



Jade isimli Üye şimdilik offline konumundadır Alıntı ile Cevapla
Cevapla

Yukarı'daki Konuyu Aşağıdaki Sosyal Ağlarda Paylaşabilirsiniz.


(Tümünü Görüntüle Konuyu Görüntüleyen Üyeler: 1
Jade
Seçenekler Arama
Stil

Yetkileriniz
Konu Açma Yetkiniz Yok
Cevap Yazma Yetkiniz Yok
Eklenti Yükleme Yetkiniz Yok
Mesajınızı Değiştirme Yetkiniz Yok

BB code is Açık
Smileler Açık
[IMG] Kodları Açık
HTML-Kodu Kapalı
Trackbacks are Açık
Pingbacks are Açık
Refbacks are Açık


Forum hakkında Kullanılan sistem hakkında
Forumaski paylaşım sitesidir.Bu nedenle yazılı, görsel ve diğer materyaller sitemize kayıtlı üyelerimiz tarafından kontrol edilmeksizin eklenmektedir.Bu nedenden ötürü doğabilecek yasal sorumluluklar yazan kullanıcılara aittir.Sitemiz hak sahiplerinin şikayetleri doğrultusunda yazılı, görsel ve diğer materyalleri 48 saat içerisinde sitemizden kaldırmaktadır. Bildirimlerinizi bu linkten bize yapabilirsiniz.

Telif Hakları vBulletin® Copyright ©2000 - 2016, ve Jelsoft Enterprises Ltd.'e Aittir.
SEO by vBSEO 3.6.0 PL2 ©2011, Crawlability, Inc.

Saat: 17:41