Forum Aski - Türkiye'nin En Eğlenceli Forumu
 

Go Back   Forum Aski - Türkiye'nin En Eğlenceli Forumu > Müzik Dünyası > Nota - Akor - Tab
facebook bağlan


Hayko Cepkin Tabları

Nota - Akor - Tab kategorisinde açılmış olan Hayko Cepkin Tabları konusu , Hayko Cepkin Tabları Ben Gideyim INTRO: E:---------------------------------------------- B:---------------------------------------------- G:---------------------------------------------- D:---------------------------------------------- A:-------------7-9------------------------------ E:-7-9-7-9-7-11--------------------------------- A F# Ah çeker bu yürek ah canım A F# Sen bilmezsen kim bilir A F# Zor zamanlar ...


Yeni Konu aç  Cevapla
 
LinkBack Seçenekler Arama Stil
Alt 30.11.2013, 18:24   #1 (permalink)

Kullanıcıların profil bilgileri misafirlere kapatılmıştır.
Standart Hayko Cepkin Tabları



Hayko Cepkin Tabları


Ben Gideyim

INTRO:
E:----------------------------------------------
B:----------------------------------------------
G:----------------------------------------------
D:----------------------------------------------
A:-------------7-9------------------------------
E:-7-9-7-9-7-11---------------------------------




A F#
Ah çeker bu yürek ah canım
A F#
Sen bilmezsen kim bilir
A F#
Zor zamanlar gördüm ah canım
A F#
Söyleyemem dert benimdir
A F#
Su gibidir berraktır bu gönül
A F#
Kana kana iç iyi gelir
A F#
kor alevler yaktı bu gönül
A F#
Söndürmeye kim gelir


Am C F#
Ateşini gördüm yandım yanında kor ettim
Am C F# X2 (A)
Yalanını bildim bak en sonunda öğrendim


A F#
Çok sevmeyi isterdim ah canım
A F#
Yol vermedin ben neyleyim
A F#
Tuz basmadan yarama ah canım
A F#
Görünmeden ben gideyim


TEKRAR (A)



Bertaraf Et

INTRO
e||---------6-----7---------------------------------
B||---------6-----7----------------------------------
G||---------7-----8---------------------------------x8 (wah)
D||-----8---------9-----------------------------------
A||---8---------9-------------------------------------
E||-6--------7----------------------------------------


(A)
e||---------------------------------------------------------
B||---------------------------------------------------------
G||-------------------------------------------------------x8
D||-8--8--8--8--9--9--9--9--8--8--8--8--9--9--9--9--9--12--
A||-8--8--8--8--9--9--9--9--8--8--8--8--9--9--9--9--9--12--
E||-6--6--6--6--7--7--7--7--6--6--6--6--7--7--7--7--7--10--

(B)
e||---------------------------------------------------------
B||---------------------------------------------------------
G||------6----5-------------------------------------------x2
D||-3----6----5----6----6--6--6----------------------------
A||-3----4----3----6----6--6--6-----------------------------
E||-1--------------4----4--4--4-----------------------------


e||---------------------------------------------------------
B||---------------------------------------------------------
G||---------------------------------------------------------
D||-----8-------8-------9-------9---------------------------
A||---8---8---8---8---9---9---9---9-------------------------
E||-6-------6-------7-------7-------------------------------

INTRO x8

(A) x8


e||---------------
B||---------------
G||--------------- x8
D||-8--8--9--9----
A||-8--8--9--9----
E||-6--6--7--7----

Bertaraf Et

em f em f em f em f
Altı üstü 5 metreydi, dertlerinin birikimi
em f em f em f gm cm gm f em
Belki biter dedin ama sen kaparsan gözlerini
em f em f em f em f
Bertaraf et her şeyini kıymetini kısmetini
em f em f em f gm cm gm f em
Belki yarın gelir ama bugün seni sevmedi ki

rid 23


Fırtınam

Solo- Arkada Ritim Am-G-F

e-
B-
G- 4-5-7-4-5p4 5-5-7-4
D- 5-7 7-5s7
A-
E-

Am G F
Çoban oldum gidiyorum
Am G F
Yapayalnız bu diyardan
Am G F
Kırbacını vurma yüzüme
Dm F G
Düşürür halim zor aah
Dm F G
Düşürür halim zor aah

Am G F
Karın oldum eriyorum
Am G F
Güneş olma yamacımda
Am G F
Irmağın olurum senin
Dm F G
Sularım önünde durma
Dm F G
Sularım önünde durma


Am
Yolum uzun
G Dm
Gör güzelim
Am G Dm
Vakit doldu ben gideyim
Am G Dm
Küçük yaşta ağlar oldum
G F Dm
Fırtınamsın benim
G F Dm
Sen estikçe ben titrerim


Görmüyorsun

intro Cm-D#-F

Cm D# F
yolum uzun ömrüm kısa
Cm D# F
ben vurgunum bir cımbıza
Cm D# F
Üç gün geçti göremedim
Cm D# F
arıyorum yana yana


D# F D# F
yok kimse bilmiyor kimseee
Gm D# F
durdurak bilmez ah bu gönül
Gm D# F
sürünerek bak geçti bir ömür
Gm D# F
suçlu olan bensem söyle bileyim
Gm D# F
tut elimi yanına geleyim


Cm D# F
ne haldeyim bilmiyorsun
Cm D# F
viraneyim görmüyorsun
Cm D# F
kederdeysem içiyorsam
Cm D# F
sebep sensin biliyorsun

D# F D# F
yok yine dönmüyor niyee

Gm D# F
durdurak bilmez ah bu gönül
Gm D# F
sürünerek bak geçti bir ömür
Gm D# F
suçlu olan bensem söyle bileyim
Gm D# F
tut elimi yanına geleyim


Son Kez

E---------------------------------------------------------
B-3-6-5-3-----1-3-1-3-1---8----3-6-5-3-2-----1-3-1-3-1----
G---------2-3-----------3----------------2-3------------3- başlangıçta 1 kez
D---------------------------------------------------------
A---------------------------------------------------------
E---------------------------------------------------------

son kez gölgemden gölgen koptu
hem de çok derinden dertliyim
sesin yok tenin yok çalmaya devam
sessizlik son kez

tüm o sevgilerimi geri ver bırak
yoruldum çok yolun açık olsun
kimse geri dönmez


E---------------------------------------------------------
B-3-6-5-3-----1-3-1-3-1---8---3-6-5-3-2-----1-3-1-3-1-----
G---------2-3-----------3---------------2-3------------3--
D---------------------------------------------------------
A---------------------------------------------------------
E---------------------------------------------------------

son kez gölgemden gölgen koptu
hem de çok derinden dertliyim çalmaya devam
sesin yok tenin yok
sessizlik son kez


Dm-C-A7-Bb

Dm C A7 Bb
herşey biter sen de kaldın bir yalnız
Dm C Bb Dm
herşey gider yeter ki sen,,zamanın ver


tüm o sevgilerimi geri ver bırak
yoruldum çok yolun açık olsun AYNEN TAB
kimse geri dönmez

Dm C A7 Bb
herşey biter sen de kaldın bir yalnız
Dm C Bb Dm
herşey gider yeter ki sen zamanın ver

Yanlız Kalsın

EM ---
Gömdüm sandım gittiğinde AM-AM (AM Akorları her dize sonunda hızlı olarak 2 kere basılacak)
EM ---
Bir demet çiçeğim bile yok AM-AM
EM ---
Toprak kaldım gittiğinde AM-AM
EM ---
Filiz verdimde suyu yok AM-AM

EM G DM AM - EM
Yanlız kalsın dediğin diline
EM G DM AM - EM
Bedduadır sesinin teline

Gömdüm sandım gittiğinde
Bir demet çiçeğim bile yok
Toprak kaldım gittiğinde
Filiz verdimde suyu yok

Yanlız kalsın dediğin diline
Bedduadır sesinin teline

Yarası Saklı

Em
Kurtarın beni tutun elimden düşmeden
Em Am
Kollayın beni korkar oldum ben herşeyden
Em F# G Am Em
Unutmam seni çok acı verdin giderken
Em F# G Am
Hala çok yeni yarası saklı derinde

Em F# G Am ) x2

Em F# G Am
Yok mu bunun ilacı aaahhh . ) x2 tekrar

Em
Kurtarın beni tutun elimden düşmeden
Em Am
Kollayın beni korkar oldum ben herşeyden
Em F# G Am Em
Unutmam seni çok acı verdin giderken
Em Em G Am
Hala çok yeni yarası saklı derinde

Em F# G Am ) x2

Em F# G Am
Yok mu bunun ilacı aaahhh . ) x2 tekrar

__________________



Jade isimli Üye şimdilik offline konumundadır Alıntı ile Cevapla
Cevapla

Yukarı'daki Konuyu Aşağıdaki Sosyal Ağlarda Paylaşabilirsiniz.


(Tümünü Görüntüle Konuyu Görüntüleyen Üyeler: 1
Jade
Seçenekler Arama
Stil

Yetkileriniz
Konu Açma Yetkiniz Yok
Cevap Yazma Yetkiniz Yok
Eklenti Yükleme Yetkiniz Yok
Mesajınızı Değiştirme Yetkiniz Yok

BB code is Açık
Smileler Açık
[IMG] Kodları Açık
HTML-Kodu Kapalı
Trackbacks are Açık
Pingbacks are Açık
Refbacks are Açık


Forum hakkında Kullanılan sistem hakkında
Forumaski paylaşım sitesidir.Bu nedenle yazılı, görsel ve diğer materyaller sitemize kayıtlı üyelerimiz tarafından kontrol edilmeksizin eklenmektedir.Bu nedenden ötürü doğabilecek yasal sorumluluklar yazan kullanıcılara aittir.Sitemiz hak sahiplerinin şikayetleri doğrultusunda yazılı, görsel ve diğer materyalleri 48 saat içerisinde sitemizden kaldırmaktadır. Bildirimlerinizi bu linkten bize yapabilirsiniz.

Telif Hakları vBulletin® Copyright ©2000 - 2016, ve Jelsoft Enterprises Ltd.'e Aittir.
SEO by vBSEO 3.6.0 PL2 ©2011, Crawlability, Inc.

Saat: 15:34