Forum Aski - Türkiye'nin En Eğlenceli Forumu
 

Go Back   Forum Aski - Türkiye'nin En Eğlenceli Forumu > Müzik Dünyası > Nota - Akor - Tab
facebook bağlan


Metallıca bateri tabları

Nota - Akor - Tab kategorisinde açılmış olan Metallıca bateri tabları konusu , For Whom The Bell Tolls C --------x-------|----------------|------| T oo--oo----------|----------------|oo--oo| F oo--oo----------|----------------|oo--oo| S --------o-------|----------------|------| B o---o---o---o---|o---o---o---o---|o---o-| \__________Play__4_times________/ C x---------------|----------------|----x-----------|----------------| H ----x---x---x---|x---x---x---x---|x-------x---x---|x---x---x---x---| S ----o-------o---|----o-------o---|----o-------o---|----o-------o---| B o-------o-------|o-------o-------|o-------o-------|o-------o-------| C ----x-----------|----------------|----x-----------|--------------| H x-------x---x---|x---x---x---x---|x-------x---x---|--------------| t ----------------|----------------|----------------|---o--------o-| ...


Yeni Konu aç  Cevapla
 
LinkBack Seçenekler Arama Stil
Alt 17.06.2013, 18:50   #1 (permalink)
Root Administrator

Kullanıcıların profil bilgileri misafirlere kapatılmıştır.
Standart Metallıca bateri tabları



For Whom The Bell Tolls

C --------x-------|----------------|------|

T oo--oo----------|----------------|oo--oo|

F oo--oo----------|----------------|oo--oo|

S --------o-------|----------------|------|

B o---o---o---o---|o---o---o---o---|o---o-|

\__________Play__4_times________/

C x---------------|----------------|----x-----------|----------------|

H ----x---x---x---|x---x---x---x---|x-------x---x---|x---x---x---x---|

S ----o-------o---|----o-------o---|----o-------o---|----o-------o---|

B o-------o-------|o-------o-------|o-------o-------|o-------o-------|

C ----x-----------|----------------|----x-----------|--------------|

H x-------x---x---|x---x---x---x---|x-------x---x---|--------------|

t ----------------|----------------|----------------|---o--------o-|

T ----------------|----------------|----------------|-----o-------o|

S ----o-------o---|----o-------o---|----o-------o---|o-o------ooo--|

B o-------o-------|o-------o-------|o-------o-------|--------------|

C x---------------|----------------|----x-----------|----------------|

H ----x---x---x---|x---x---x---x---|x-------x---x---|x---x---x---x---|

S ----o-------o---|----o-------o---|----o-------o---|----o-------o---|

B o-------o-------|o-------o-------|o-------o-------|o-------o-------|

C ----x-----------|----------------|----x-----------|x---------------|

H x-------x---x---|x---x---x---x---|x-------x---x---|----------------|

t ----------------|----------------|----------------|----------o-o---|

T ----------------|----------------|----------------|--------------o-|

S ----o-------o---|----o-------o---|----o-------o---|--------f-------|

B o-------o-------|o-------o-------|o-------o-------|o-o-o-o---------|

C x---------------|---------------x|----------------|----------------|

H ----x---x---x---|x---x---x---x---|x---x---x---x---|x---x---x---x---|

S ----o-------o---|----o-------o---|----o-------o---|----o-------o---|

B o-------o-------|o-------o-------|o-------o-------|o-------o-------|

C x---------------|---------------x|----------------|---------------x|

H ----x---x---x---|x---x---x---x---|x---x---x---x---|x---x---x---x---|

S ----o-------o---|----o-------o---|----o-------o---|----o-------o---|

B o-------o-------|o-------o-------|o-------o-------|o-------o-------|

C x---------------|----------------|x---------------|------------x---|

H ----x---x---x---|x---x---x---x---|----x---x---x---|x---x---x-------|

S ----o-------o---|----o-------o---|----o-------o---|----o-------o---|

B o-------o-------|o-------o-------|o-------o-------|o-------o-------|

C x---------------|----x-------x---|x---------------|----------------|

H ----x---x---x---|----------------|----x---x---x---|x---x---x---x---|

t ----------------|ooo-----ooo-----|----------------|----------------|

T ----------------|---o-------o----|----------------|----------------|

S ----o-------o---|----o-------o---|----o-------o---|----o-------o---|

B o-------o-------|----------------|o-------o-------|o-------o-------|

C x---------------|----x-------x---|x---------------|----------------|

H ----x---x---x---|x-------x-------|----x---x---x---|x---x---x---x---|

S ----o-------o---|----o-------o---|----o-------o---|----o-------o---|

B o-------o-------|o-oo----o-oo----|o-------o-------|o-------o-------|

C x---------------|----x-------x---|x---------------|----------------|

H ----x---x---x---|x-------x-------|----x---x---x---|x---x---x---x---|

S ----o-------o---|----o-------o---|----o-------o---|----o-------o---|

B o-------o-------|o-------o-------|o-------o-------|o-------o-------|

C x--------------------------|

H ----x---x------------------|

t --------------------o-o-oo-|

T --------------------------o|

S ----o-------o---o-oo-------|

B o-------o------------------|

C x---------------|------------x---|x---------------|--------x-x-x-x-|

H ----x---x---x---|x---x---x-------|----x---x---x---|----------------|

t ----------------|----------------|----------------|ooo-------------|

T ----------------|----------------|----------------|---o-oo---------|

S ----o-------o---|----o-------o---|----o-------o---|----o---o-o-o-o-|

B o-------o-------|o-------o-------|o-------o-------|--------o-o-o-o-|

C x---------------|------------x---|x---------------|--------x-x-x-x-|

H ----x---x---x---|x---x---x-------|----x---x---x---|----------------|

t ----------------|----------------|----------------|ooo-------------|

T ----------------|----------------|----------------|---o-oo---------|

S ----o-------o---|----o-------o---|----o-------o---|----o---o-o-o-o-|

B o-------o-------|o-------o-------|o-------o-------|--------o-o-o-o-|

C x---------------|----------------|x---------------|--------------x-|

H ----x---x---x---|x---x---x---x---|----x---x---x---|----------------|

S ----o-------o---|----o-------o---|----o-------o---|o----ooo------o-|

B o-------o-------|o-------o-------|o-------o-------|---------o-o-o--|

C x---------------|----------------|x---------------|----x-------x---|

H ----x---x---x---|x---x---x---x---|----x---x---x---|x-------x-------|

S ----o-------o---|----o-------o---|----o-------o---|----o-------o---|

B o-------o-------|o-------o-------|o-------o-------|o-oo----o-oo----|

C x---------------|----------------|x---------------|----x-------x---|

H ----x---x---x---|x---x---x---x---|----x---x---x---|----------------|

S ----o-------o---|----o-------o---|----o-------o---|-ooo------oo----|

B o-------o-------|o-------o-------|o-------o-------|----------------|

C x---------------|----------------|x---------------|-------------|

H ----x---x---x---|x---x---x---x---|----x---x---x---|-------------|

t ----------------|----------------|----------------|------o-o-oo-|

T ----------------|----------------|----------------|------------o|

S ----o-------o---|----o-------o---|----o-------o---|-o--oo-------|

B o-------o-------|o-------o-------|o-------o-------|-------------|

C x---------------|------------x---|x---------------|--------x-x-x-x-|

H ----x---x---x---|x---x---x-------|----x---x---x---|----------------|

t ----------------|----------------|----------------|ooo-------------|

T ----------------|----------------|----------------|---o-oo---------|

S ----o-------o---|----o-------o---|----o-------o---|----o---o-o-o-o-|

B o-------o-------|o-------o-------|o-------o-------|--------o-o-o-o-|

C x---------------|------------x---|x---------------|--------x-x-x-x-|

H ----x---x---x---|x---x---x-------|----x---x---x---|----------------|

t ----------------|----------------|----------------|ooo-------------|

T ----------------|----------------|----------------|---o-oo---------|

S ----o-------o---|----o-------o---|----o-------o---|----o---o-o-o-o-|

B o-------o-------|o-------o-------|o-------o-------|--------o-o-o-o-|

C x---------------|x---------------|x---------------|----------------|

H ----x---x---x---|----x---x---x---|----x---x---x---|----------------|

T ----------------|----------------|----------------|o---oooo---oooo-|

S ----o-------o---|----o-------o---|----o-------o---|----------------|

B o-------o-------|o-------o-------|o-------o-------|----------------|

C x---------------|x---------------|x---------------|----------------|

H ----x---x---x---|----x---x---x---|----x---x---x---|----------------|

T ----------------|----------------|----------------|o---oooo---oooo-|

S ----o-------o---|----o-------o---|----o-------o---|----------------|

B o-------o-------|o-------o-------|o-------o-------|----------------|

\_________Play____2____times____/



C x---------------|x---------------|

H ----x---x---x---|----x---x---x---|

S ----o-------o---|----o-------o---|

B o-------o-------|o-------o-------|

C x---------------|----------------|x---------------|--------------x-|

H ----x---x---x---|x---x---x---x---|----x---x---x---|----------------|

t ----------------|----------------|----------------|--ooo-----------|

T ----------------|----------------|----------------|-------ooo------|

S ----o-------o---|----o-------o---|----o-------o---|o---------------|

B o-------o-------|o-------o-------|o-------o-------|-------------o--|

C x---------------|----------------|----x-------x---|----x-------x---|

H ----x---x---x---|x---x---x---x---|x-------x-------|x-------x-------|

S ----o-------o---|----o-------o---|----o-------o---|----o-------o---|

B o-------o-------|o-------o-------|o--o----o--o----|o--o----o--o----|

C x---------------|----------------|x---------------|---------------|

H ----x---x---x---|x---x---x---x---|----x---x---x---|---------------|

t ----------------|----------------|----------------|---ooo---------|

T ----------------|----------------|----------------|--------ooo----|

F ----------------|----------------|----------------|------------ooo|

S ----o-------o---|----o-------o---|----o-------o---|oo-------------|

B o-------o-------|o-------o-------|o-------o-------|---------------|

C x---------------|----------------|x---------------|-------------|

H ----x---x---x---|x---x---x---x---|----x---x---x---|-------------|

t ----------------|----------------|----------------|------o-o-oo-|

T ----------------|----------------|----------------|------------o|

S ----o-------o---|----o-------o---|----o-------o---|-o--oo-------|

B o-------o-------|o-------o-------|o-------o-------|-------------|

C x---------------|------------x---|x---------------|--------x-x-x-x-|

H ----x---x---x---|x---x---x-------|----x---x---x---|----------------|

t ----------------|----------------|----------------|ooo-------------|

T ----------------|----------------|----------------|---o-oo---------|

S ----o-------o---|----o-------o---|----o-------o---|----o---o-o-o-o-|

B o-------o-------|o-------o-------|o-------o-------|--------o-o-o-o-|

C x---------------|------------x---|x---------------|--------x-x-x-x-|

H ----x---x---x---|x---x---x-------|----x---x---x---|----------------|

t ----------------|----------------|----------------|ooo-------------|

T ----------------|----------------|----------------|---o-oo---------|

S ----o-------o---|----o-------o---|----o-------o---|----o---o-o-o-o-|

B o-------o-------|o-------o-------|o-------o-------|--------o-o-o-o-|

C ----------------|x---------------|--------x| Just keep repeating this

T ---------o-o----|--------o-o-----|o-o------| while it fades out.

F ---------o-o----|--------o-o-----|o-o------|

S ----------------|o---------------|--------o|


fuel

(INTRO)

RC:--3---------------3--:

BA:--3---------------3--:

OH:----2-2-2-2-2-2-2----: ["Gimme fuel, gimme fire..."]



(BEAT)

BA:--2--2-2---:

OH:--2-2-2-2--:

SN:----2-2-2--: x8



(BEAT BREAK)

RC:----------3----3----3------3--:

CC:-------3----3----3-------3----:

SN:--1-2-2---3----3----3----3-3--:

BA:-------3-2--3-2--3-2--3-3-----:



BEAT (x2)

(VERSE)

CC:--3------3--:

SN:-----3------:

BA:--3-3-3--3--:

OH:-------2----: x8 ["Turn on...I see red..."]



(BEAT BREAK 2)

RC:-----3----3----3------3--:

CC:--3----3----3-------3----:

SN:-----3----3----3----3-3--:

BA:--3-2--3-2--3-2--3-3-----: x2



BEAT (x2)

VERSE (x8)

BEAT BREAK 2 (x2)

VERSE (x8)

BEAT BREAK 2 (x2)

(PRE-CHORUS ROLL)

RC:------------------------------------------3--:

FT:-----------------------2-2----2-2-2-2---2----:

T2:---------2-2----2-2-2-2---2-2----------------:

T1:--2-2-2-2---2-2----------------------2-2-----:

SN:----------2-------------2-------------2------:

BA:------------------------------------------3--:



(CHORUS)

RC:------------------3-----------------3----------:

SN:------2-----2-----2-----2-----2-----2-----2----:

B1:--2-2-2-2-2-2-2-2-2-2-2-2-2-2-2-2-2-2-2-2-2-2--:

B2:---2-2-2-2-2-2-2-2-2-2-2-2-2-2-2-2-2-2-2-2-2---: x4 ["Ooh, On I burn..."]

(PRE-INTRO)

SN:-1-1-1-2-2-2-3-3-3-2-2-3-3--: ["Quench my thirst with gasoline..."]



BEAT (x2)

INTRO (x2)

BEAT (x8)

BEAT BREAK

BEAT (x2)

VERSE (x8)

BEAT BREAK 2

BEAT (x2)

VERSE (x8)

BEAT BREAK 2 (x2)

VERSE (x8)

BEAT BREAK 2 (x2)

PRE-CHORUS ROLL

CHORUS (x2)

PRE-INTRO

BEAT (x2)

(MIDDLE)

SN:------3---:

BA:--3-3--3--:

OH:--3---3---: (Tambourine accompaniement) x36 ["Yeah, heh..."]

PRE-CHORUS ROLL

BEAT (x16)

PRE-INTRO

CHORUS (x8)

PRE-INTRO

INTRO

BEAT (x2)

BEAT BREAK

__________________
[Link'i Görebilmeniz İçin Kayıt Olunuz.! Kayıt OL][Link'i Görebilmeniz İçin Kayıt Olunuz.! Kayıt OL][Link'i Görebilmeniz İçin Kayıt Olunuz.! Kayıt OL][Link'i Görebilmeniz İçin Kayıt Olunuz.! Kayıt OL][Link'i Görebilmeniz İçin Kayıt Olunuz.! Kayıt OL][Link'i Görebilmeniz İçin Kayıt Olunuz.! Kayıt OL][Link'i Görebilmeniz İçin Kayıt Olunuz.! Kayıt OL][Link'i Görebilmeniz İçin Kayıt Olunuz.! Kayıt OL][Link'i Görebilmeniz İçin Kayıt Olunuz.! Kayıt OL][Link'i Görebilmeniz İçin Kayıt Olunuz.! Kayıt OL][Link'i Görebilmeniz İçin Kayıt Olunuz.! Kayıt OL][Link'i Görebilmeniz İçin Kayıt Olunuz.! Kayıt OL]
Jaqen isimli Üye şuanda  online konumundadır Alıntı ile Cevapla
Cevapla

Yukarı'daki Konuyu Aşağıdaki Sosyal Ağlarda Paylaşabilirsiniz.


(Tümünü Görüntüle Konuyu Görüntüleyen Üyeler: 1
Laura
Seçenekler Arama
Stil

Yetkileriniz
Konu Açma Yetkiniz Yok
Cevap Yazma Yetkiniz Yok
Eklenti Yükleme Yetkiniz Yok
Mesajınızı Değiştirme Yetkiniz Yok

BB code is Açık
Smileler Açık
[IMG] Kodları Açık
HTML-Kodu Kapalı
Trackbacks are Açık
Pingbacks are Açık
Refbacks are Açık


Forum hakkında Kullanılan sistem hakkında
Forumaski paylaşım sitesidir.Bu nedenle yazılı, görsel ve diğer materyaller sitemize kayıtlı üyelerimiz tarafından kontrol edilmeksizin eklenmektedir.Bu nedenden ötürü doğabilecek yasal sorumluluklar yazan kullanıcılara aittir.Sitemiz hak sahiplerinin şikayetleri doğrultusunda yazılı, görsel ve diğer materyalleri 48 saat içerisinde sitemizden kaldırmaktadır. Bildirimlerinizi bu linkten bize yapabilirsiniz.

Telif Hakları vBulletin® Copyright ©2000 - 2016, ve Jelsoft Enterprises Ltd.'e Aittir.
SEO by vBSEO 3.6.0 PL2 ©2011, Crawlability, Inc.

Saat: 16:47